  0
SECTION
  2
HEADER
  9
$ACADVER
  1
AC1024
  9
$ACADMAINTVER
 70
     6
  9
$DWGCODEPAGE
  3
ANSI_1250
  9
$LASTSAVEDBY
  1
Lenovo
  9
$INSBASE
 10
0.0
 20
0.0
 30
0.0
  9
$EXTMIN
 10
8393350.766
 20
5720947.960999999
 30
0.0
  9
$EXTMAX
 10
8393671.262093415
 20
5721632.298
 30
136.21
  9
$LIMMIN
 10
0.0
 20
0.0
  9
$LIMMAX
 10
420.0
 20
297.0
  9
$ORTHOMODE
 70
     0
  9
$REGENMODE
 70
     1
  9
$FILLMODE
 70
     1
  9
$QTEXTMODE
 70
     0
  9
$MIRRTEXT
 70
     0
  9
$LTSCALE
 40
1.0
  9
$ATTMODE
 70
     1
  9
$TEXTSIZE
 40
2.5
  9
$TRACEWID
 40
1.0
  9
$TEXTSTYLE
  7
Standard
  9
$CLAYER
  8
0
  9
$CELTYPE
  6
ByLayer
  9
$CECOLOR
 62
   256
  9
$CELTSCALE
 40
1.0
  9
$DISPSILH
 70
     0
  9
$DIMSCALE
 40
1.0
  9
$DIMASZ
 40
2.5
  9
$DIMEXO
 40
0.625
  9
$DIMDLI
 40
3.75
  9
$DIMRND
 40
0.0
  9
$DIMDLE
 40
0.0
  9
$DIMEXE
 40
1.25
  9
$DIMTP
 40
0.0
  9
$DIMTM
 40
0.0
  9
$DIMTXT
 40
2.5
  9
$DIMCEN
 40
2.5
  9
$DIMTSZ
 40
0.0
  9
$DIMTOL
 70
     0
  9
$DIMLIM
 70
     0
  9
$DIMTIH
 70
     0
  9
$DIMTOH
 70
     0
  9
$DIMSE1
 70
     0
  9
$DIMSE2
 70
     0
  9
$DIMTAD
 70
     1
  9
$DIMZIN
 70
     8
  9
$DIMTOFFSET
 70
     1
  9
$DIMBLK
  1

  9
$DIMASO
 70
     1
  9
$DIMSHO
 70
     1
  9
$DIMPOST
  1

  9
$DIMAPOST
  1

  9
$DIMALT
 70
     0
  9
$DIMALTD
 70
     3
  9
$DIMALTF
 40
0.03937007874016
  9
$DIMLFAC
 40
1.0
  9
$DIMTOFL
 70
     1
  9
$DIMTVP
 40
0.0
  9
$DIMTIX
 70
     0
  9
$DIMSOXD
 70
     0
  9
$DIMSAH
 70
     0
  9
$DIMBLK1
  1

  9
$DIMBLK2
  1

  9
$DIMSTYLE
  2
ISO-25
  9
$DIMCLRD
 70
     0
  9
$DIMCLRE
 70
     0
  9
$DIMCLRT
 70
     0
  9
$DIMTFAC
 40
1.0
  9
$DIMGAP
 40
0.625
  9
$DIMJUST
 70
     0
  9
$DIMSD1
 70
     0
  9
$DIMSD2
 70
     0
  9
$DIMTOLJ
 70
     0
  9
$DIMTZIN
 70
     8
  9
$DIMALTZ
 70
     0
  9
$DIMALTTZ
 70
     0
  9
$DIMUPT
 70
     0
  9
$DIMDEC
 70
     2
  9
$DIMTDEC
 70
     2
  9
$DIMALTU
 70
     2
  9
$DIMALTTD
 70
     3
  9
$DIMTXSTY
  7
Standard
  9
$DIMAUNIT
 70
     0
  9
$DIMADEC
 70
     0
  9
$DIMALTRND
 40
0.0
  9
$DIMAZIN
 70
     0
  9
$DIMDSEP
 70
    44
  9
$DIMATFIT
 70
     3
  9
$DIMFRAC
 70
     0
  9
$DIMLDRBLK
  1

  9
$DIMLUNIT
 70
     2
  9
$DIMLWD
 70
    -2
  9
$DIMLWE
 70
    -2
  9
$DIMTMOVE
 70
     0
  9
$DIMFXL
 40
1.0
  9
$DIMFXLON
 70
     0
  9
$DIMJOGANG
 40
0.7853981633974483
  9
$DIMTFILL
 70
     0
  9
$DIMTFILLCLR
 70
     0
  9
$DIMARCSYM
 70
     0
  9
$DIMLTYPE
  6

  9
$DIMLTEX1
  6

  9
$DIMLTEX2
  6

  9
$DIMTXTDIRECTION
 70
     0
  9
$LUNITS
 70
     2
  9
$LUPREC
 70
     4
  9
$SKETCHINC
 40
1.0
  9
$FILLETRAD
 40
0.0
  9
$AUNITS
 70
     0
  9
$AUPREC
 70
     0
  9
$MENU
  1
.
  9
$ELEVATION
 40
0.0
  9
$PELEVATION
 40
0.0
  9
$THICKNESS
 40
0.0
  9
$LIMCHECK
 70
     0
  9
$CHAMFERA
 40
0.0
  9
$CHAMFERB
 40
0.0
  9
$CHAMFERC
 40
0.0
  9
$CHAMFERD
 40
0.0
  9
$SKPOLY
 70
     0
  9
$TDCREATE
 40
2460955.407681968
  9
$TDUCREATE
 40
2460955.324348634
  9
$TDUPDATE
 40
2460955.413897107
  9
$TDUUPDATE
 40
2460955.330563773
  9
$TDINDWG
 40
0.0066340972
  9
$TDUSRTIMER
 40
0.0066335648
  9
$USRTIMER
 70
     1
  9
$ANGBASE
 50
0.0
  9
$ANGDIR
 70
     0
  9
$PDMODE
 70
     3
  9
$PDSIZE
 40
0.5
  9
$PLINEWID
 40
0.0
  9
$SPLFRAME
 70
     0
  9
$SPLINETYPE
 70
     6
  9
$SPLINESEGS
 70
     8
  9
$HANDSEED
  5
971
  9
$SURFTAB1
 70
     6
  9
$SURFTAB2
 70
     6
  9
$SURFTYPE
 70
     6
  9
$SURFU
 70
     6
  9
$SURFV
 70
     6
  9
$UCSBASE
  2

  9
$UCSNAME
  2

  9
$UCSORG
 10
0.0
 20
0.0
 30
0.0
  9
$UCSXDIR
 10
1.0
 20
0.0
 30
0.0
  9
$UCSYDIR
 10
0.0
 20
1.0
 30
0.0
  9
$UCSORTHOREF
  2

  9
$UCSORTHOVIEW
 70
     0
  9
$UCSORGTOP
 10
0.0
 20
0.0
 30
0.0
  9
$UCSORGBOTTOM
 10
0.0
 20
0.0
 30
0.0
  9
$UCSORGLEFT
 10
0.0
 20
0.0
 30
0.0
  9
$UCSORGRIGHT
 10
0.0
 20
0.0
 30
0.0
  9
$UCSORGFRONT
 10
0.0
 20
0.0
 30
0.0
  9
$UCSORGBACK
 10
0.0
 20
0.0
 30
0.0
  9
$PUCSBASE
  2

  9
$PUCSNAME
  2

  9
$PUCSORG
 10
0.0
 20
0.0
 30
0.0
  9
$PUCSXDIR
 10
1.0
 20
0.0
 30
0.0
  9
$PUCSYDIR
 10
0.0
 20
1.0
 30
0.0
  9
$PUCSORTHOREF
  2

  9
$PUCSORTHOVIEW
 70
     0
  9
$PUCSORGTOP
 10
0.0
 20
0.0
 30
0.0
  9
$PUCSORGBOTTOM
 10
0.0
 20
0.0
 30
0.0
  9
$PUCSORGLEFT
 10
0.0
 20
0.0
 30
0.0
  9
$PUCSORGRIGHT
 10
0.0
 20
0.0
 30
0.0
  9
$PUCSORGFRONT
 10
0.0
 20
0.0
 30
0.0
  9
$PUCSORGBACK
 10
0.0
 20
0.0
 30
0.0
  9
$USERI1
 70
     0
  9
$USERI2
 70
     0
  9
$USERI3
 70
     0
  9
$USERI4
 70
     0
  9
$USERI5
 70
     0
  9
$USERR1
 40
0.0
  9
$USERR2
 40
0.0
  9
$USERR3
 40
0.0
  9
$USERR4
 40
0.0
  9
$USERR5
 40
0.0
  9
$WORLDVIEW
 70
     1
  9
$SHADEDGE
 70
     3
  9
$SHADEDIF
 70
    70
  9
$TILEMODE
 70
     1
  9
$MAXACTVP
 70
    64
  9
$PINSBASE
 10
0.0
 20
0.0
 30
0.0
  9
$PLIMCHECK
 70
     0
  9
$PEXTMIN
 10
0.0
 20
0.0
 30
0.0
  9
$PEXTMAX
 10
0.0
 20
0.0
 30
0.0
  9
$PLIMMIN
 10
0.0
 20
0.0
  9
$PLIMMAX
 10
12.0
 20
9.0
  9
$UNITMODE
 70
     0
  9
$VISRETAIN
 70
     1
  9
$PLINEGEN
 70
     0
  9
$PSLTSCALE
 70
     1
  9
$TREEDEPTH
 70
  3020
  9
$CMLSTYLE
  2
Standard
  9
$CMLJUST
 70
     0
  9
$CMLSCALE
 40
20.0
  9
$PROXYGRAPHICS
 70
     1
  9
$MEASUREMENT
 70
     1
  9
$CELWEIGHT
370
    -1
  9
$ENDCAPS
280
     0
  9
$JOINSTYLE
280
     0
  9
$LWDISPLAY
290
     0
  9
$INSUNITS
 70
     4
  9
$HYPERLINKBASE
  1

  9
$STYLESHEET
  1

  9
$XEDIT
290
     1
  9
$CEPSNTYPE
380
     0
  9
$PSTYLEMODE
290
     1
  9
$FINGERPRINTGUID
  2
{78B0F746-B111-4909-95E5-2EF5CBA97683}
  9
$VERSIONGUID
  2
{802A1128-578F-4476-99F9-9F88F1E6F721}
  9
$EXTNAMES
290
     1
  9
$PSVPSCALE
 40
0.0
  9
$OLESTARTUP
290
     0
  9
$SORTENTS
280
   127
  9
$INDEXCTL
280
     0
  9
$HIDETEXT
280
     1
  9
$XCLIPFRAME
280
     0
  9
$HALOGAP
280
     0
  9
$OBSCOLOR
 70
   257
  9
$OBSLTYPE
280
     0
  9
$INTERSECTIONDISPLAY
280
     0
  9
$INTERSECTIONCOLOR
 70
   257
  9
$DIMASSOC
280
     2
  9
$PROJECTNAME
  1

  9
$CAMERADISPLAY
290
     0
  9
$LENSLENGTH
 40
50.0
  9
$CAMERAHEIGHT
 40
0.0
  9
$STEPSPERSEC
 40
2.0
  9
$STEPSIZE
 40
6.0
  9
$3DDWFPREC
 40
2.0
  9
$PSOLWIDTH
 40
5.0
  9
$PSOLHEIGHT
 40
80.0
  9
$LOFTANG1
 40
1.570796326794897
  9
$LOFTANG2
 40
1.570796326794897
  9
$LOFTMAG1
 40
0.0
  9
$LOFTMAG2
 40
0.0
  9
$LOFTPARAM
 70
     7
  9
$LOFTNORMALS
280
     1
  9
$LATITUDE
 40
37.795
  9
$LONGITUDE
 40
-122.394
  9
$NORTHDIRECTION
 40
0.0
  9
$TIMEZONE
 70
 -8000
  9
$LIGHTGLYPHDISPLAY
280
     1
  9
$TILEMODELIGHTSYNCH
280
     1
  9
$CMATERIAL
347
EC
  9
$SOLIDHIST
280
     0
  9
$SHOWHIST
280
     1
  9
$DWFFRAME
280
     2
  9
$DGNFRAME
280
     0
  9
$REALWORLDSCALE
290
     1
  9
$INTERFERECOLOR
 62
     1
  9
$INTERFEREOBJVS
345
F9
  9
$INTERFEREVPVS
346
F6
  9
$CSHADOW
280
     0
  9
$SHADOWPLANELOCATION
 40
0.0
  0
ENDSEC
  0
SECTION
  2
CLASSES
  0
CLASS
  1
ACDBDICTIONARYWDFLT
  2
AcDbDictionaryWithDefault
  3
ObjectDBX Classes
 90
        0
 91
        1
280
     0
281
     0
  0
CLASS
  1
ACDBPLACEHOLDER
  2
AcDbPlaceHolder
  3
ObjectDBX Classes
 90
        0
 91
        1
280
     0
281
     0
  0
CLASS
  1
LAYOUT
  2
AcDbLayout
  3
ObjectDBX Classes
 90
        0
 91
        1
280
     0
281
     0
  0
CLASS
  1
DICTIONARYVAR
  2
AcDbDictionaryVar
  3
ObjectDBX Classes
 90
        0
 91
        1
280
     0
281
     0
  0
CLASS
  1
TABLESTYLE
  2
AcDbTableStyle
  3
ObjectDBX Classes
 90
     4095
 91
        1
280
     0
281
     0
  0
CLASS
  1
MATERIAL
  2
AcDbMaterial
  3
ObjectDBX Classes
 90
     1153
 91
        1
280
     0
281
     0
  0
CLASS
  1
VISUALSTYLE
  2
AcDbVisualStyle
  3
ObjectDBX Classes
 90
     4095
 91
        1
280
     0
281
     0
  0
CLASS
  1
SCALE
  2
AcDbScale
  3
ObjectDBX Classes
 90
     1153
 91
        1
280
     0
281
     0
  0
CLASS
  1
MLEADERSTYLE
  2
AcDbMLeaderStyle
  3
ACDB_MLEADERSTYLE_CLASS
 90
     4095
 91
        1
280
     0
281
     0
  0
CLASS
  1
CELLSTYLEMAP
  2
AcDbCellStyleMap
  3
ObjectDBX Classes
 90
     1152
 91
        1
280
     0
281
     0
  0
CLASS
  1
EXACXREFPANELOBJECT
  2
ExAcXREFPanelObject
  3
EXAC_ESW
 90
     1025
 91
        1
280
     1
281
     0
  0
CLASS
  1
NPOCOLLECTION
  2
AcDbImpNonPersistentObjectsCollection
  3
ObjectDBX Classes
 90
     1153
 91
        1
280
     1
281
     0
  0
CLASS
  1
LAYER_INDEX
  2
AcDbLayerIndex
  3
ObjectDBX Classes
 90
        0
 91
        1
280
     0
281
     0
  0
CLASS
  1
SPATIAL_INDEX
  2
AcDbSpatialIndex
  3
AutoCAD 2000
 90
        0
 91
        1
280
     0
281
     0
  0
CLASS
  1
IDBUFFER
  2
AcDbIdBuffer
  3
ObjectDBX Classes
 90
        0
 91
        1
280
     0
281
     0
  0
CLASS
  1
ACDBSECTIONVIEWSTYLE
  2
AcDbSectionViewStyle
  3
ObjectDBX Classes
 90
     1025
 91
        1
280
     0
281
     0
  0
CLASS
  1
ACDBDETAILVIEWSTYLE
  2
AcDbDetailViewStyle
  3
ObjectDBX Classes
 90
     1025
 91
        1
280
     0
281
     0
  0
CLASS
  1
SUN
  2
AcDbSun
  3
SCENEOE
 90
     1153
 91
        1
280
     0
281
     0
  0
CLASS
  1
SORTENTSTABLE
  2
AcDbSortentsTable
  3
ObjectDBX Classes
 90
        0
 91
        1
280
     0
281
     0
  0
ENDSEC
  0
SECTION
  2
TABLES
  0
TABLE
  2
VPORT
  5
8
330
0
100
AcDbSymbolTable
 70
     1
  0
VPORT
  5
EA
330
8
100
AcDbSymbolTableRecord
100
AcDbViewportTableRecord
  2
*Active
 70
     0
 10
0.0
 20
0.0
 11
1.0
 21
1.0
 12
8393625.637623196
 22
5720967.711908245
 13
0.0
 23
0.0
 14
10.0
 24
10.0
 15
10.0
 25
10.0
 16
0.0
 26
0.0
 36
1.0
 17
0.0
 27
0.0
 37
0.0
 40
45.29323236935595
 41
2.006362672322375
 42
50.0
 43
0.0
 44
0.0
 50
0.0
 51
0.0
 71
     0
 72
  1000
 73
     1
 74
     3
 75
     0
 76
     0
 77
     0
 78
     0
281
     0
 65
     1
110
0.0
120
0.0
130
0.0
111
1.0
121
0.0
131
0.0
112
0.0
122
1.0
132
0.0
 79
     0
146
0.0
348
F5
 60
     3
 61
     5
292
     1
282
     1
141
0.0
142
0.0
 63
   250
421
  3355443
361
25E
1001
ACAD_NAV_VCDISPLAY
1070
     3
  0
ENDTAB
  0
TABLE
  2
LTYPE
  5
5
330
0
100
AcDbSymbolTable
 70
     2
  0
LTYPE
  5
14
330
5
100
AcDbSymbolTableRecord
100
AcDbLinetypeTableRecord
  2
ByBlock
 70
     0
  3

 72
    65
 73
     0
 40
0.0
  0
LTYPE
  5
15
330
5
100
AcDbSymbolTableRecord
100
AcDbLinetypeTableRecord
  2
ByLayer
 70
     0
  3

 72
    65
 73
     0
 40
0.0
  0
LTYPE
  5
16
330
5
100
AcDbSymbolTableRecord
100
AcDbLinetypeTableRecord
  2
Continuous
 70
     0
  3
Solid line
 72
    65
 73
     0
 40
0.0
  0
LTYPE
  5
394
330
5
100
AcDbSymbolTableRecord
100
AcDbLinetypeTableRecord
  2
DASHDOT
 70
     0
  3
Dash dot __ . __ . __ . __ . __ . __ . __ . __
 72
    65
 73
     4
 40
25.4
 49
12.7
 74
     0
 49
-6.35
 74
     0
 49
0.0
 74
     0
 49
-6.35
 74
     0
  0
ENDTAB
  0
TABLE
  2
LAYER
  5
2
102
{ACAD_XDICTIONARY
360
1FF
102
}
330
0
100
AcDbSymbolTable
 70
     7
  0
LAYER
  5
10
330
2
100
AcDbSymbolTableRecord
100
AcDbLayerTableRecord
  2
0
 70
     0
 62
     7
  6
Continuous
370
    -3
390
F
347
EE
  0
LAYER
  5
263
330
2
100
AcDbSymbolTableRecord
100
AcDbLayerTableRecord
  2
polilinie 3d po punktach
 70
     0
 62
     7
  6
Continuous
370
    -3
390
F
347
EE
1001
AcAecLayerStandard
1000

1000

1001
AcCmTransparency
1071
        0
  0
LAYER
  5
269
102
{ACAD_XDICTIONARY
360
26A
102
}
330
2
100
AcDbSymbolTableRecord
100
AcDbLayerTableRecord
  2
! podkład
 70
     0
 62
   250
  6
Continuous
370
    -3
390
F
347
EE
1001
AcAecLayerStandard
1000

1000

1001
AcCmTransparency
1071
 33554508
  0
LAYER
  5
383
330
2
100
AcDbSymbolTableRecord
100
AcDbLayerTableRecord
  2
punkty
 70
     0
 62
     7
  6
Continuous
370
    -3
390
F
347
EE
1001
AcAecLayerStandard
1000

1000

1001
AcCmTransparency
1071
        0
  0
LAYER
  5
38A
330
2
100
AcDbSymbolTableRecord
100
AcDbLayerTableRecord
  2
__ZRID
 70
     0
 62
     7
  6
Continuous
370
    -3
390
F
347
EE
1001
AcAecLayerStandard
1000

1000

1001
AcCmTransparency
1071
        0
  0
LAYER
  5
38E
102
{ACAD_XDICTIONARY
360
38F
102
}
330
2
100
AcDbSymbolTableRecord
100
AcDbLayerTableRecord
  2
!!!___t_MS-5_osie
 70
     0
 62
     7
  6
Continuous
370
    -3
390
F
347
EE
1001
AcAecLayerStandard
1000

1000

1001
AcCmTransparency
1071
        0
  0
LAYER
  5
391
102
{ACAD_XDICTIONARY
360
392
102
}
330
2
100
AcDbSymbolTableRecord
100
AcDbLayerTableRecord
  2
!!!___t_MS-5_podpory_korpus_rys
 70
     0
 62
     7
  6
Continuous
370
    -3
390
F
347
EE
1001
AcAecLayerStandard
1000

1000

1001
AcCmTransparency
1071
        0
  0
ENDTAB
  0
TABLE
  2
STYLE
  5
3
330
0
100
AcDbSymbolTable
 70
     3
  0
STYLE
  5
11
330
3
100
AcDbSymbolTableRecord
100
AcDbTextStyleTableRecord
  2
Standard
 70
     0
 40
0.0
 41
1.0
 50
0.0
 71
     0
 42
2.5
  3
ARIAL.TTF
  4

1001
ACAD
1000
Arial
1071
       34
  0
STYLE
  5
132
330
3
100
AcDbSymbolTableRecord
100
AcDbTextStyleTableRecord
  2
Annotative
 70
     0
 40
0.0
 41
1.0
 50
0.0
 71
     0
 42
2.5
  3
ARIAL.TTF
  4

1001
AcadAnnotative
1000
AnnotativeData
1002
{
1070
     1
1070
     1
1002
}
1001
ACAD
1000
Arial
1071
       34
  0
STYLE
  5
39D
330
3
100
AcDbSymbolTableRecord
100
AcDbTextStyleTableRecord
  2
G7Text
 70
     0
 40
0.0
 41
0.8
 50
14.32394487827058
 71
     0
 42
2.5
  3
romans.shx
  4

  0
ENDTAB
  0
TABLE
  2
VIEW
  5
6
330
0
100
AcDbSymbolTable
 70
     0
  0
ENDTAB
  0
TABLE
  2
UCS
  5
7
330
0
100
AcDbSymbolTable
 70
     0
  0
ENDTAB
  0
TABLE
  2
APPID
  5
9
330
0
100
AcDbSymbolTable
 70
    14
  0
APPID
  5
12
330
9
100
AcDbSymbolTableRecord
100
AcDbRegAppTableRecord
  2
ACAD
 70
     0
  0
APPID
  5
9E
330
9
100
AcDbSymbolTableRecord
100
AcDbRegAppTableRecord
  2
ACAD_PSEXT
 70
     0
  0
APPID
  5
133
330
9
100
AcDbSymbolTableRecord
100
AcDbRegAppTableRecord
  2
AcadAnnoPO
 70
     0
  0
APPID
  5
134
330
9
100
AcDbSymbolTableRecord
100
AcDbRegAppTableRecord
  2
AcadAnnotative
 70
     0
  0
APPID
  5
135
330
9
100
AcDbSymbolTableRecord
100
AcDbRegAppTableRecord
  2
ACAD_DSTYLE_DIMJAG
 70
     0
  0
APPID
  5
136
330
9
100
AcDbSymbolTableRecord
100
AcDbRegAppTableRecord
  2
ACAD_DSTYLE_DIMTALN
 70
     0
  0
APPID
  5
165
330
9
100
AcDbSymbolTableRecord
100
AcDbRegAppTableRecord
  2
ACAD_MLEADERVER
 70
     0
  0
APPID
  5
217
330
9
100
AcDbSymbolTableRecord
100
AcDbRegAppTableRecord
  2
ACAD_NAV_VCDISPLAY
 70
     0
  0
APPID
  5
267
330
9
100
AcDbSymbolTableRecord
100
AcDbRegAppTableRecord
  2
AcAecLayerStandard
 70
     0
  0
APPID
  5
268
330
9
100
AcDbSymbolTableRecord
100
AcDbRegAppTableRecord
  2
AcCmTransparency
 70
     0
  0
APPID
  5
398
330
9
100
AcDbSymbolTableRecord
100
AcDbRegAppTableRecord
  2
AcDbDynamicBlockGUID
 70
     0
  0
APPID
  5
399
330
9
100
AcDbSymbolTableRecord
100
AcDbRegAppTableRecord
  2
TRIMBLENAME
 70
     0
  0
APPID
  5
39A
330
9
100
AcDbSymbolTableRecord
100
AcDbRegAppTableRecord
  2
GradientColor1ACI
 70
     0
  0
APPID
  5
39B
330
9
100
AcDbSymbolTableRecord
100
AcDbRegAppTableRecord
  2
GradientColor2ACI
 70
     0
  0
ENDTAB
  0
TABLE
  2
DIMSTYLE
  5
A
330
0
100
AcDbSymbolTable
 70
     3
100
AcDbDimStyleTable
  0
DIMSTYLE
105
1B0
330
A
100
AcDbSymbolTableRecord
100
AcDbDimStyleTableRecord
  2
Standard
 70
     0
178
     0
340
11
  0
DIMSTYLE
105
137
330
A
100
AcDbSymbolTableRecord
100
AcDbDimStyleTableRecord
  2
Annotative
 70
     0
 40
0.0
 41
2.5
 42
0.625
 43
3.75
 44
1.25
 73
     0
 74
     0
 77
     1
 78
     8
140
2.5
141
2.5
143
0.03937007874016
147
0.625
171
     3
172
     1
178
     0
271
     2
272
     2
274
     3
278
    44
283
     0
284
     8
340
11
1001
AcadAnnotative
1000
AnnotativeData
1002
{
1070
     1
1070
     1
1002
}
1001
ACAD_DSTYLE_DIMJAG
1070
   388
1040
1.5
1001
ACAD_DSTYLE_DIMTALN
1070
   392
1070
     0
  0
DIMSTYLE
105
27
330
A
100
AcDbSymbolTableRecord
100
AcDbDimStyleTableRecord
  2
ISO-25
 70
     0
 41
2.5
 42
0.625
 43
3.75
 44
1.25
 73
     0
 74
     0
 77
     1
 78
     8
140
2.5
141
2.5
143
0.03937007874016
147
0.625
171
     3
172
     1
178
     0
271
     2
272
     2
274
     3
278
    44
283
     0
284
     8
340
11
  0
ENDTAB
  0
TABLE
  2
BLOCK_RECORD
  5
1
330
0
100
AcDbSymbolTable
 70
     2
  0
BLOCK_RECORD
  5
1F
330
1
100
AcDbSymbolTableRecord
100
AcDbBlockTableRecord
  2
*Model_Space
340
22
 70
     0
280
     1
281
     0
  0
BLOCK_RECORD
  5
D2
330
1
100
AcDbSymbolTableRecord
100
AcDbBlockTableRecord
  2
*Paper_Space
340
D3
 70
     0
280
     1
281
     0
  0
BLOCK_RECORD
  5
D6
330
1
100
AcDbSymbolTableRecord
100
AcDbBlockTableRecord
  2
*Paper_Space0
340
D7
 70
     0
280
     1
281
     0
  0
BLOCK_RECORD
  5
3C2
102
{ACAD_XDICTIONARY
360
3C3
102
}
330
1
100
AcDbSymbolTableRecord
100
AcDbBlockTableRecord
  2
G7PktPom
340
0
310
2800000020000000200000000100080000000000000400000000000000000000000000000000000000000000000080000080000000808000800000008000800080800000C0C0C000C0DCC000F0CAA6000020400000206000002080000020A0000020C0000020E00000400000004020000040400000406000004080000040A0
310
000040C0000040E00000600000006020000060400000606000006080000060A0000060C0000060E00000800000008020000080400000806000008080000080A0000080C0000080E00000A0000000A0200000A0400000A0600000A0800000A0A00000A0C00000A0E00000C0000000C0200000C0400000C0600000C0800000C0
310
A00000C0C00000C0E00000E0000000E0200000E0400000E0600000E0800000E0A00000E0C00000E0E00040000000400020004000400040006000400080004000A0004000C0004000E00040200000402020004020400040206000402080004020A0004020C0004020E000404000004040200040404000404060004040800040
310
40A0004040C0004040E00040600000406020004060400040606000406080004060A0004060C0004060E00040800000408020004080400040806000408080004080A0004080C0004080E00040A0000040A0200040A0400040A0600040A0800040A0A00040A0C00040A0E00040C0000040C0200040C0400040C0600040C08000
310
40C0A00040C0C00040C0E00040E0000040E0200040E0400040E0600040E0800040E0A00040E0C00040E0E00080000000800020008000400080006000800080008000A0008000C0008000E00080200000802020008020400080206000802080008020A0008020C0008020E00080400000804020008040400080406000804080
310
008040A0008040C0008040E00080600000806020008060400080606000806080008060A0008060C0008060E00080800000808020008080400080806000808080008080A0008080C0008080E00080A0000080A0200080A0400080A0600080A0800080A0A00080A0C00080A0E00080C0000080C0200080C0400080C0600080C0
310
800080C0A00080C0C00080C0E00080E0000080E0200080E0400080E0600080E0800080E0A00080E0C00080E0E000C0000000C0002000C0004000C0006000C0008000C000A000C000C000C000E000C0200000C0202000C0204000C0206000C0208000C020A000C020C000C020E000C0400000C0402000C0404000C0406000C0
310
408000C040A000C040C000C040E000C0600000C0602000C0604000C0606000C0608000C060A000C060C000C060E000C0800000C0802000C0804000C0806000C0808000C080A000C080C000C080E000C0A00000C0A02000C0A04000C0A06000C0A08000C0A0A000C0A0C000C0A0E000C0C00000C0C02000C0C04000C0C06000
310
C0C08000C0C0A000F0FBFF00A4A0A000808080000000FF0000FF000000FFFF00FF000000FF00FF00FFFF0000FFFFFF0049494949494949494949494949494949494949494949494949494949494949494949494949494949494949494949494949494949494949494949494949494949494949494949494949494949494949
310
49FF49494949FF4949494949494949494949494949494949494949494949494949FF49494949FF4949494949494949494949494949494949494949494949494949FF4949494949FF4949494949494949494949494949494949494949494949494949FF49494949FF4949494949494949494949494949494949494949494949
310
494949FF49494949FF4949494949494949494949494949494949494949494949494949FF49494949FF4949494949494949494949494949FF49494949494949FF494949FFFFFFFFFFFFFF4949494949494949494949494949FF4949494949FF49494949FF4949494949FF494949494949494949494949494949FF494949FF49
310
4949494949FF49494949FF49494949494949494949494949494949FF49FF49494949494949FF4949494949FF49494949494949494949494949494949FF4949494949494949FF4949494949FF494949494949494949494949494949FF49FF49494949494949494949494949494949494949494949494949494949FF494949FF
310
4949494949494949494949494949494949494949494949494949FF4949494949FF494949494949494949494949494949494949494949494949FF49494949494949FF49494949494949494949494949494949494949494949494949494949494949494949494949494949494949494949494949494949494949494949494949
310
4949494949FF4949FFFFFFFFFF494949494949494949494949494949494949494949494949FF4949FF49494949FF4949494949494949494949494949494949494949494949FF4949FF49494949FF494949494949494949494949494949494949494949494949FF4949FF49494949FF49494949494949494949494949494949
310
49494949494949FF4949FF49494949FF4949494949494949494949494949494949494949494949FF4949FF4949494949FF49494949494949494949494949494949494949494949FF4949FF4949494949FF49494949494949494949494949494949494949494949FF4949FF4949494949FF4949494949494949494949494949
310
494949494949494949FF4949FF49494949FF4949494949494949494949494949494949494949494949FF4949FF494949FF494949494949494949494949494949494949494949494949FF4949FFFFFFFF4949494949494949494949494949494949494949494949494949494949494949494949494949494949494949494949
310
4949494949494949494949494949494949494949494949494949494949494949494949494949494949494949494949494949494949494949
102
{BLKREFS
331
3C1
331
3CE
331
3D2
331
3D6
331
3DA
331
3DE
331
3E2
331
3E6
331
3EA
331
3EE
331
3F2
331
3F6
331
3FA
331
3FE
331
402
331
406
331
40A
331
40E
331
412
331
416
331
41A
331
41E
331
422
331
426
331
42A
331
42E
331
432
331
436
331
43A
331
43E
331
442
331
446
331
44A
331
44E
331
452
331
456
331
45A
331
45E
331
462
331
466
331
46A
331
46E
331
472
331
476
331
47A
331
47E
331
482
331
486
331
48A
331
48E
331
492
331
496
331
49A
331
49E
331
4A2
331
4A6
331
4AA
331
4AE
331
4B2
331
4B6
331
4BA
331
4BE
331
4C2
331
4C6
331
4CA
331
4CE
331
4D2
331
4D6
331
4DA
331
4DE
331
4E2
331
4E6
331
4EA
331
4EE
331
4F2
331
4F6
331
4FA
331
4FE
331
502
331
506
331
50A
331
50E
331
512
331
516
331
51A
331
51E
331
522
331
526
331
52A
331
52E
331
532
331
536
331
53A
331
53E
331
542
331
546
331
54A
331
54E
331
552
331
556
331
55A
331
55E
331
562
331
566
331
56A
331
56E
331
572
331
576
331
57A
331
57E
331
582
331
586
331
58A
331
58E
331
592
331
596
331
59A
331
59E
331
5A2
331
5A6
331
5AA
331
5AE
331
683
331
687
331
68B
331
68F
331
693
331
697
331
69B
331
69F
331
6A3
331
6A7
331
6AB
331
6AF
331
6B3
331
6B7
331
6BB
331
6BF
331
6C3
331
6C7
331
6CB
331
6CF
331
6D3
331
6D7
331
6DB
331
6DF
331
6E3
331
6E7
331
6EB
331
6EF
331
6F3
331
6F7
331
6FB
331
6FF
331
703
331
707
331
70B
331
70F
331
713
331
717
331
71B
331
71F
331
723
331
727
331
72B
331
72F
331
733
331
737
331
73B
331
73F
331
743
331
747
331
74B
331
74F
331
753
331
757
331
75B
331
75F
331
763
331
767
331
76B
331
76F
331
773
331
777
331
77B
331
77F
331
783
331
787
331
78B
331
78F
331
793
331
797
331
79B
331
79F
331
7A3
331
7A7
331
7AB
331
7AF
331
7B3
331
7B7
331
7BB
331
7BF
331
7C3
331
7C7
331
7CB
331
7CF
331
7D3
331
7D7
331
7DB
331
7DF
331
7E3
331
7E7
331
7EB
331
7EF
331
7F3
331
7F7
331
7FB
331
7FF
331
803
331
807
331
80B
331
80F
331
813
331
817
331
81B
331
81F
331
823
331
827
331
82B
331
82F
331
833
331
837
331
83B
331
83F
331
843
331
847
331
84B
331
84F
331
853
331
857
331
85B
331
85F
331
863
331
867
102
}
 70
     6
280
     1
281
     0
1001
AcDbDynamicBlockGUID
1000
{9B8D5BB9-0938-4B61-A636-FB4EC716C88F}
  0
ENDTAB
  0
ENDSEC
  0
SECTION
  2
BLOCKS
  0
BLOCK
  5
20
330
1F
100
AcDbEntity
  8
0
100
AcDbBlockBegin
  2
*Model_Space
 70
     0
 10
0.0
 20
0.0
 30
0.0
  3
*Model_Space
  1

  0
ENDBLK
  5
21
330
1F
100
AcDbEntity
  8
0
100
AcDbBlockEnd
  0
BLOCK
  5
D4
330
D2
100
AcDbEntity
 67
     1
  8
0
100
AcDbBlockBegin
  2
*Paper_Space
 70
     0
 10
0.0
 20
0.0
 30
0.0
  3
*Paper_Space
  1

  0
ENDBLK
  5
D5
330
D2
100
AcDbEntity
 67
     1
  8
0
100
AcDbBlockEnd
  0
BLOCK
  5
D8
330
D6
100
AcDbEntity
  8
0
100
AcDbBlockBegin
  2
*Paper_Space0
 70
     0
 10
0.0
 20
0.0
 30
0.0
  3
*Paper_Space0
  1

  0
ENDBLK
  5
D9
330
D6
100
AcDbEntity
  8
0
100
AcDbBlockEnd
  0
BLOCK
  5
3C5
330
3C2
100
AcDbEntity
  8
0
100
AcDbBlockBegin
  2
G7PktPom
 70
     2
 10
0.0
 20
0.0
 30
0.0
  3
G7PktPom
  1

  4
Punkt pomiarowy
  0
ATTDEF
  5
3C6
330
3C2
100
AcDbEntity
  8
0
  6
Continuous
 62
     0
370
    -2
100
AcDbText
 10
1.0
 20
1.0
 30
0.0
 40
1.8
  1
???
 41
0.8
 51
14.32394487827058
  7
G7Text
100
AcDbAttributeDefinition
  3
Enter point ID
  2
ID
 70
     0
280
     0
  0
ATTDEF
  5
3C7
330
3C2
100
AcDbEntity
  8
0
  6
Continuous
 62
     0
370
    -2
100
AcDbText
 10
1.0
 20
-1.8
 30
0.0
 40
1.8
  1
 
 41
0.8
 51
14.32394487827058
  7
G7Text
100
AcDbAttributeDefinition
  3
Enter point height
  2
H
 70
     0
280
     0
  0
POINT
  5
3C8
330
3C2
100
AcDbEntity
  8
0
  6
Continuous
 62
     0
370
    -2
100
AcDbPoint
 10
0.0
 20
0.0
 30
0.0
  0
HATCH
  5
3C9
330
3C2
100
AcDbEntity
  8
0
  6
Continuous
 62
   255
370
     0
100
AcDbHatch
 10
0.0
 20
0.0
 30
0.0
210
0.0
220
0.0
230
1.0
  2
DOTS
 70
     0
 71
     0
 91
        1
 92
        1
 93
        4
 72
     1
 10
-0.8630375759901483
 20
3.106267972901719
 11
3.302230210844598
 21
3.106267972901719
 72
     1
 10
3.302230210844598
 20
3.106267972901719
 11
3.302230210844598
 21
-1.979680734527941
 72
     1
 10
3.302230210844598
 20
-1.979680734527941
 11
-0.8630375759901483
 21
-1.979680734527941
 72
     1
 10
-0.8630375759901483
 20
-1.979680734527941
 11
-0.8630375759901483
 21
3.106267972901719
 97
        0
 75
     0
 76
     1
 52
90.0
 41
10.0
 77
     0
 78
     1
 53
90.0
 43
0.0
 44
0.0
 45
-15.875
 46
7.937500000000001
 79
     2
 49
0.0
 49
-15.875
 98
        1
 10
0.0
 20
0.0
1001
ACAD
1010
0.0
1020
0.0
1030
0.0
  0
ENDBLK
  5
3CA
330
3C2
100
AcDbEntity
  8
0
100
AcDbBlockEnd
  0
ENDSEC
  0
SECTION
  2
ENTITIES
  0
INSERT
  5
683
330
1F
100
AcDbEntity
  8
punkty
100
AcDbBlockReference
 66
     1
  2
G7PktPom
 10
8393669.757
 20
5720956.615
 30
135.098
 41
0.15
 42
0.15
 43
0.1
  0
ATTRIB
  5
684
330
683
100
AcDbEntity
  8
0
  6
Continuous
 62
     0
370
    -2
100
AcDbText
 10
8393669.907000002
 20
5720956.765
 30
135.098
 40
0.27
  1
md1300
 41
0.8
 51
14.32394487827058
  7
G7Text
100
AcDbAttribute
  2
ID
 70
     0
280
     0
  0
ATTRIB
  5
685
330
683
100
AcDbEntity
  8
0
  6
Continuous
 62
     0
370
    -2
100
AcDbText
 10
8393669.907000002
 20
5720956.345000001
 30
135.098
 40
0.27
  1
135.098
 41
0.8
 51
14.32394487827058
  7
G7Text
100
AcDbAttribute
  2
H
 70
     0
280
     0
  0
SEQEND
  5
686
330
683
100
AcDbEntity
  8
punkty
  0
INSERT
  5
687
330
1F
100
AcDbEntity
  8
punkty
100
AcDbBlockReference
 66
     1
  2
G7PktPom
 10
8393660.608
 20
5720957.809
 30
135.119
 41
0.15
 42
0.15
 43
0.1
  0
ATTRIB
  5
688
330
687
100
AcDbEntity
  8
0
  6
Continuous
 62
     0
370
    -2
100
AcDbText
 10
8393660.757999998
 20
5720957.959
 30
135.119
 40
0.27
  1
md1298
 41
0.8
 51
14.32394487827058
  7
G7Text
100
AcDbAttribute
  2
ID
 70
     0
280
     0
  0
ATTRIB
  5
689
330
687
100
AcDbEntity
  8
0
  6
Continuous
 62
     0
370
    -2
100
AcDbText
 10
8393660.757999998
 20
5720957.539000001
 30
135.119
 40
0.27
  1
135.119
 41
0.8
 51
14.32394487827058
  7
G7Text
100
AcDbAttribute
  2
H
 70
     0
280
     0
  0
SEQEND
  5
68A
330
687
100
AcDbEntity
  8
punkty
  0
INSERT
  5
68B
330
1F
100
AcDbEntity
  8
punkty
100
AcDbBlockReference
 66
     1
  2
G7PktPom
 10
8393666.552
 20
5720962.177
 30
135.184
 41
0.15
 42
0.15
 43
0.1
  0
ATTRIB
  5
68C
330
68B
100
AcDbEntity
  8
0
  6
Continuous
 62
     0
370
    -2
100
AcDbText
 10
8393666.701999998
 20
5720962.327000001
 30
135.184
 40
0.27
  1
md1297
 41
0.8
 51
14.32394487827058
  7
G7Text
100
AcDbAttribute
  2
ID
 70
     0
280
     0
  0
ATTRIB
  5
68D
330
68B
100
AcDbEntity
  8
0
  6
Continuous
 62
     0
370
    -2
100
AcDbText
 10
8393666.701999998
 20
5720961.907
 30
135.184
 40
0.27
  1
135.184
 41
0.8
 51
14.32394487827058
  7
G7Text
100
AcDbAttribute
  2
H
 70
     0
280
     0
  0
SEQEND
  5
68E
330
68B
100
AcDbEntity
  8
punkty
  0
INSERT
  5
68F
330
1F
100
AcDbEntity
  8
punkty
100
AcDbBlockReference
 66
     1
  2
G7PktPom
 10
8393663.183
 20
5720972.388
 30
135.192
 41
0.15
 42
0.15
 43
0.1
  0
ATTRIB
  5
690
330
68F
100
AcDbEntity
  8
0
  6
Continuous
 62
     0
370
    -2
100
AcDbText
 10
8393663.332999999
 20
5720972.538
 30
135.192
 40
0.27
  1
md1296
 41
0.8
 51
14.32394487827058
  7
G7Text
100
AcDbAttribute
  2
ID
 70
     0
280
     0
  0
ATTRIB
  5
691
330
68F
100
AcDbEntity
  8
0
  6
Continuous
 62
     0
370
    -2
100
AcDbText
 10
8393663.332999999
 20
5720972.118000001
 30
135.192
 40
0.27
  1
135.192
 41
0.8
 51
14.32394487827058
  7
G7Text
100
AcDbAttribute
  2
H
 70
     0
280
     0
  0
SEQEND
  5
692
330
68F
100
AcDbEntity
  8
punkty
  0
INSERT
  5
693
330
1F
100
AcDbEntity
  8
punkty
100
AcDbBlockReference
 66
     1
  2
G7PktPom
 10
8393657.365
 20
5720969.62
 30
135.205
 41
0.15
 42
0.15
 43
0.1
  0
ATTRIB
  5
694
330
693
100
AcDbEntity
  8
0
  6
Continuous
 62
     0
370
    -2
100
AcDbText
 10
8393657.514999999
 20
5720969.77
 30
135.205
 40
0.27
  1
md1295
 41
0.8
 51
14.32394487827058
  7
G7Text
100
AcDbAttribute
  2
ID
 70
     0
280
     0
  0
ATTRIB
  5
695
330
693
100
AcDbEntity
  8
0
  6
Continuous
 62
     0
370
    -2
100
AcDbText
 10
8393657.514999999
 20
5720969.35
 30
135.205
 40
0.27
  1
135.205
 41
0.8
 51
14.32394487827058
  7
G7Text
100
AcDbAttribute
  2
H
 70
     0
280
     0
  0
SEQEND
  5
696
330
693
100
AcDbEntity
  8
punkty
  0
INSERT
  5
697
330
1F
100
AcDbEntity
  8
punkty
100
AcDbBlockReference
 66
     1
  2
G7PktPom
 10
8393659.423
 20
5720985.361
 30
135.403
 41
0.15
 42
0.15
 43
0.1
  0
ATTRIB
  5
698
330
697
100
AcDbEntity
  8
0
  6
Continuous
 62
     0
370
    -2
100
AcDbText
 10
8393659.572999999
 20
5720985.510999999
 30
135.403
 40
0.27
  1
md1294
 41
0.8
 51
14.32394487827058
  7
G7Text
100
AcDbAttribute
  2
ID
 70
     0
280
     0
  0
ATTRIB
  5
699
330
697
100
AcDbEntity
  8
0
  6
Continuous
 62
     0
370
    -2
100
AcDbText
 10
8393659.572999999
 20
5720985.091
 30
135.403
 40
0.27
  1
135.403
 41
0.8
 51
14.32394487827058
  7
G7Text
100
AcDbAttribute
  2
H
 70
     0
280
     0
  0
SEQEND
  5
69A
330
697
100
AcDbEntity
  8
punkty
  0
INSERT
  5
69B
330
1F
100
AcDbEntity
  8
punkty
100
AcDbBlockReference
 66
     1
  2
G7PktPom
 10
8393653.249
 20
5720982.195
 30
135.255
 41
0.15
 42
0.15
 43
0.1
  0
ATTRIB
  5
69C
330
69B
100
AcDbEntity
  8
0
  6
Continuous
 62
     0
370
    -2
100
AcDbText
 10
8393653.398999998
 20
5720982.345
 30
135.255
 40
0.27
  1
md1293
 41
0.8
 51
14.32394487827058
  7
G7Text
100
AcDbAttribute
  2
ID
 70
     0
280
     0
  0
ATTRIB
  5
69D
330
69B
100
AcDbEntity
  8
0
  6
Continuous
 62
     0
370
    -2
100
AcDbText
 10
8393653.398999998
 20
5720981.925000001
 30
135.255
 40
0.27
  1
135.255
 41
0.8
 51
14.32394487827058
  7
G7Text
100
AcDbAttribute
  2
H
 70
     0
280
     0
  0
SEQEND
  5
69E
330
69B
100
AcDbEntity
  8
punkty
  0
INSERT
  5
69F
330
1F
100
AcDbEntity
  8
punkty
100
AcDbBlockReference
 66
     1
  2
G7PktPom
 10
8393656.841
 20
5720996.414
 30
135.207
 41
0.15
 42
0.15
 43
0.1
  0
ATTRIB
  5
6A0
330
69F
100
AcDbEntity
  8
0
  6
Continuous
 62
     0
370
    -2
100
AcDbText
 10
8393656.990999999
 20
5720996.564
 30
135.207
 40
0.27
  1
md1291
 41
0.8
 51
14.32394487827058
  7
G7Text
100
AcDbAttribute
  2
ID
 70
     0
280
     0
  0
ATTRIB
  5
6A1
330
69F
100
AcDbEntity
  8
0
  6
Continuous
 62
     0
370
    -2
100
AcDbText
 10
8393656.990999999
 20
5720996.144
 30
135.207
 40
0.27
  1
135.207
 41
0.8
 51
14.32394487827058
  7
G7Text
100
AcDbAttribute
  2
H
 70
     0
280
     0
  0
SEQEND
  5
6A2
330
69F
100
AcDbEntity
  8
punkty
  0
INSERT
  5
6A3
330
1F
100
AcDbEntity
  8
punkty
100
AcDbBlockReference
 66
     1
  2
G7PktPom
 10
8393654.281
 20
5720998.471
 30
135.185
 41
0.15
 42
0.15
 43
0.1
  0
ATTRIB
  5
6A4
330
6A3
100
AcDbEntity
  8
0
  6
Continuous
 62
     0
370
    -2
100
AcDbText
 10
8393654.430999998
 20
5720998.621
 30
135.185
 40
0.27
  1
md1280
 41
0.8
 51
14.32394487827058
  7
G7Text
100
AcDbAttribute
  2
ID
 70
     0
280
     0
  0
ATTRIB
  5
6A5
330
6A3
100
AcDbEntity
  8
0
  6
Continuous
 62
     0
370
    -2
100
AcDbText
 10
8393654.430999998
 20
5720998.200999999
 30
135.185
 40
0.27
  1
135.185
 41
0.8
 51
14.32394487827058
  7
G7Text
100
AcDbAttribute
  2
H
 70
     0
280
     0
  0
SEQEND
  5
6A6
330
6A3
100
AcDbEntity
  8
punkty
  0
INSERT
  5
6A7
330
1F
100
AcDbEntity
  8
punkty
100
AcDbBlockReference
 66
     1
  2
G7PktPom
 10
8393655.13
 20
5720997.475
 30
134.595
 41
0.15
 42
0.15
 43
0.1
  0
ATTRIB
  5
6A8
330
6A7
100
AcDbEntity
  8
0
  6
Continuous
 62
     0
370
    -2
100
AcDbText
 10
8393655.28
 20
5720997.624999999
 30
134.595
 40
0.27
  1
md1279
 41
0.8
 51
14.32394487827058
  7
G7Text
100
AcDbAttribute
  2
ID
 70
     0
280
     0
  0
ATTRIB
  5
6A9
330
6A7
100
AcDbEntity
  8
0
  6
Continuous
 62
     0
370
    -2
100
AcDbText
 10
8393655.28
 20
5720997.205
 30
134.595
 40
0.27
  1
134.595
 41
0.8
 51
14.32394487827058
  7
G7Text
100
AcDbAttribute
  2
H
 70
     0
280
     0
  0
SEQEND
  5
6AA
330
6A7
100
AcDbEntity
  8
punkty
  0
INSERT
  5
6AB
330
1F
100
AcDbEntity
  8
punkty
100
AcDbBlockReference
 66
     1
  2
G7PktPom
 10
8393655.659
 20
5720997.108
 30
134.56
 41
0.15
 42
0.15
 43
0.1
  0
ATTRIB
  5
6AC
330
6AB
100
AcDbEntity
  8
0
  6
Continuous
 62
     0
370
    -2
100
AcDbText
 10
8393655.808999998
 20
5720997.258
 30
134.56
 40
0.27
  1
md1278
 41
0.8
 51
14.32394487827058
  7
G7Text
100
AcDbAttribute
  2
ID
 70
     0
280
     0
  0
ATTRIB
  5
6AD
330
6AB
100
AcDbEntity
  8
0
  6
Continuous
 62
     0
370
    -2
100
AcDbText
 10
8393655.808999998
 20
5720996.838
 30
134.56
 40
0.27
  1
134.560
 41
0.8
 51
14.32394487827058
  7
G7Text
100
AcDbAttribute
  2
H
 70
     0
280
     0
  0
SEQEND
  5
6AE
330
6AB
100
AcDbEntity
  8
punkty
  0
INSERT
  5
6AF
330
1F
100
AcDbEntity
  8
punkty
100
AcDbBlockReference
 66
     1
  2
G7PktPom
 10
8393650.506
 20
5720991.253
 30
134.508
 41
0.15
 42
0.15
 43
0.1
  0
ATTRIB
  5
6B0
330
6AF
100
AcDbEntity
  8
0
  6
Continuous
 62
     0
370
    -2
100
AcDbText
 10
8393650.655999998
 20
5720991.403
 30
134.508
 40
0.27
  1
md1277
 41
0.8
 51
14.32394487827058
  7
G7Text
100
AcDbAttribute
  2
ID
 70
     0
280
     0
  0
ATTRIB
  5
6B1
330
6AF
100
AcDbEntity
  8
0
  6
Continuous
 62
     0
370
    -2
100
AcDbText
 10
8393650.655999998
 20
5720990.982999999
 30
134.508
 40
0.27
  1
134.508
 41
0.8
 51
14.32394487827058
  7
G7Text
100
AcDbAttribute
  2
H
 70
     0
280
     0
  0
SEQEND
  5
6B2
330
6AF
100
AcDbEntity
  8
punkty
  0
INSERT
  5
6B3
330
1F
100
AcDbEntity
  8
punkty
100
AcDbBlockReference
 66
     1
  2
G7PktPom
 10
8393650.057
 20
5720991.607
 30
134.543
 41
0.15
 42
0.15
 43
0.1
  0
ATTRIB
  5
6B4
330
6B3
100
AcDbEntity
  8
0
  6
Continuous
 62
     0
370
    -2
100
AcDbText
 10
8393650.206999999
 20
5720991.757
 30
134.543
 40
0.27
  1
md1276
 41
0.8
 51
14.32394487827058
  7
G7Text
100
AcDbAttribute
  2
ID
 70
     0
280
     0
  0
ATTRIB
  5
6B5
330
6B3
100
AcDbEntity
  8
0
  6
Continuous
 62
     0
370
    -2
100
AcDbText
 10
8393650.206999999
 20
5720991.336999999
 30
134.543
 40
0.27
  1
134.543
 41
0.8
 51
14.32394487827058
  7
G7Text
100
AcDbAttribute
  2
H
 70
     0
280
     0
  0
SEQEND
  5
6B6
330
6B3
100
AcDbEntity
  8
punkty
  0
INSERT
  5
6B7
330
1F
100
AcDbEntity
  8
punkty
100
AcDbBlockReference
 66
     1
  2
G7PktPom
 10
8393649.521
 20
5720992.527
 30
135.037
 41
0.15
 42
0.15
 43
0.1
  0
ATTRIB
  5
6B8
330
6B7
100
AcDbEntity
  8
0
  6
Continuous
 62
     0
370
    -2
100
AcDbText
 10
8393649.670999998
 20
5720992.677
 30
135.037
 40
0.27
  1
md1275
 41
0.8
 51
14.32394487827058
  7
G7Text
100
AcDbAttribute
  2
ID
 70
     0
280
     0
  0
ATTRIB
  5
6B9
330
6B7
100
AcDbEntity
  8
0
  6
Continuous
 62
     0
370
    -2
100
AcDbText
 10
8393649.670999998
 20
5720992.257
 30
135.037
 40
0.27
  1
135.037
 41
0.8
 51
14.32394487827058
  7
G7Text
100
AcDbAttribute
  2
H
 70
     0
280
     0
  0
SEQEND
  5
6BA
330
6B7
100
AcDbEntity
  8
punkty
  0
INSERT
  5
6BB
330
1F
100
AcDbEntity
  8
punkty
100
AcDbBlockReference
 66
     1
  2
G7PktPom
 10
8393652.641
 20
5720996.763
 30
135.134
 41
0.15
 42
0.15
 43
0.1
  0
ATTRIB
  5
6BC
330
6BB
100
AcDbEntity
  8
0
  6
Continuous
 62
     0
370
    -2
100
AcDbText
 10
8393652.791
 20
5720996.913
 30
135.134
 40
0.27
  1
md706
 41
0.8
 51
14.32394487827058
  7
G7Text
100
AcDbAttribute
  2
ID
 70
     0
280
     0
  0
ATTRIB
  5
6BD
330
6BB
100
AcDbEntity
  8
0
  6
Continuous
 62
     0
370
    -2
100
AcDbText
 10
8393652.791
 20
5720996.493000001
 30
135.134
 40
0.27
  1
135.134
 41
0.8
 51
14.32394487827058
  7
G7Text
100
AcDbAttribute
  2
H
 70
     0
280
     0
  0
SEQEND
  5
6BE
330
6BB
100
AcDbEntity
  8
punkty
  0
INSERT
  5
6BF
330
1F
100
AcDbEntity
  8
punkty
100
AcDbBlockReference
 66
     1
  2
G7PktPom
 10
8393654.49
 20
5720991.885
 30
135.22
 41
0.15
 42
0.15
 43
0.1
  0
ATTRIB
  5
6C0
330
6BF
100
AcDbEntity
  8
0
  6
Continuous
 62
     0
370
    -2
100
AcDbText
 10
8393654.639999999
 20
5720992.034999999
 30
135.22
 40
0.27
  1
3603
 41
0.8
 51
14.32394487827058
  7
G7Text
100
AcDbAttribute
  2
ID
 70
     0
280
     0
  0
ATTRIB
  5
6C1
330
6BF
100
AcDbEntity
  8
0
  6
Continuous
 62
     0
370
    -2
100
AcDbText
 10
8393654.639999999
 20
5720991.615
 30
135.22
 40
0.27
  1
135.220
 41
0.8
 51
14.32394487827058
  7
G7Text
100
AcDbAttribute
  2
H
 70
     0
280
     0
  0
SEQEND
  5
6C2
330
6BF
100
AcDbEntity
  8
punkty
  0
INSERT
  5
6C3
330
1F
100
AcDbEntity
  8
punkty
100
AcDbBlockReference
 66
     1
  2
G7PktPom
 10
8393648.691
 20
5720983.619
 30
135.28
 41
0.15
 42
0.15
 43
0.1
  0
ATTRIB
  5
6C4
330
6C3
100
AcDbEntity
  8
0
  6
Continuous
 62
     0
370
    -2
100
AcDbText
 10
8393648.840999998
 20
5720983.769
 30
135.28
 40
0.27
  1
3604
 41
0.8
 51
14.32394487827058
  7
G7Text
100
AcDbAttribute
  2
ID
 70
     0
280
     0
  0
ATTRIB
  5
6C5
330
6C3
100
AcDbEntity
  8
0
  6
Continuous
 62
     0
370
    -2
100
AcDbText
 10
8393648.840999998
 20
5720983.348999999
 30
135.28
 40
0.27
  1
135.280
 41
0.8
 51
14.32394487827058
  7
G7Text
100
AcDbAttribute
  2
H
 70
     0
280
     0
  0
SEQEND
  5
6C6
330
6C3
100
AcDbEntity
  8
punkty
  0
INSERT
  5
6C7
330
1F
100
AcDbEntity
  8
punkty
100
AcDbBlockReference
 66
     1
  2
G7PktPom
 10
8393656.557
 20
5720964.514
 30
135.21
 41
0.15
 42
0.15
 43
0.1
  0
ATTRIB
  5
6C8
330
6C7
100
AcDbEntity
  8
0
  6
Continuous
 62
     0
370
    -2
100
AcDbText
 10
8393656.706999999
 20
5720964.664
 30
135.21
 40
0.27
  1
3605
 41
0.8
 51
14.32394487827058
  7
G7Text
100
AcDbAttribute
  2
ID
 70
     0
280
     0
  0
ATTRIB
  5
6C9
330
6C7
100
AcDbEntity
  8
0
  6
Continuous
 62
     0
370
    -2
100
AcDbText
 10
8393656.706999999
 20
5720964.244000001
 30
135.21
 40
0.27
  1
135.210
 41
0.8
 51
14.32394487827058
  7
G7Text
100
AcDbAttribute
  2
H
 70
     0
280
     0
  0
SEQEND
  5
6CA
330
6C7
100
AcDbEntity
  8
punkty
  0
INSERT
  5
6CB
330
1F
100
AcDbEntity
  8
punkty
100
AcDbBlockReference
 66
     1
  2
G7PktPom
 10
8393662.337
 20
5720962.18
 30
135.13
 41
0.15
 42
0.15
 43
0.1
  0
ATTRIB
  5
6CC
330
6CB
100
AcDbEntity
  8
0
  6
Continuous
 62
     0
370
    -2
100
AcDbText
 10
8393662.486999998
 20
5720962.329999999
 30
135.13
 40
0.27
  1
3606
 41
0.8
 51
14.32394487827058
  7
G7Text
100
AcDbAttribute
  2
ID
 70
     0
280
     0
  0
ATTRIB
  5
6CD
330
6CB
100
AcDbEntity
  8
0
  6
Continuous
 62
     0
370
    -2
100
AcDbText
 10
8393662.486999998
 20
5720961.91
 30
135.13
 40
0.27
  1
135.130
 41
0.8
 51
14.32394487827058
  7
G7Text
100
AcDbAttribute
  2
H
 70
     0
280
     0
  0
SEQEND
  5
6CE
330
6CB
100
AcDbEntity
  8
punkty
  0
INSERT
  5
6CF
330
1F
100
AcDbEntity
  8
punkty
100
AcDbBlockReference
 66
     1
  2
G7PktPom
 10
8393665.585
 20
5720954.798
 30
135.02
 41
0.15
 42
0.15
 43
0.1
  0
ATTRIB
  5
6D0
330
6CF
100
AcDbEntity
  8
0
  6
Continuous
 62
     0
370
    -2
100
AcDbText
 10
8393665.735
 20
5720954.948
 30
135.02
 40
0.27
  1
3607
 41
0.8
 51
14.32394487827058
  7
G7Text
100
AcDbAttribute
  2
ID
 70
     0
280
     0
  0
ATTRIB
  5
6D1
330
6CF
100
AcDbEntity
  8
0
  6
Continuous
 62
     0
370
    -2
100
AcDbText
 10
8393665.735
 20
5720954.528000001
 30
135.02
 40
0.27
  1
135.020
 41
0.8
 51
14.32394487827058
  7
G7Text
100
AcDbAttribute
  2
H
 70
     0
280
     0
  0
SEQEND
  5
6D2
330
6CF
100
AcDbEntity
  8
punkty
  0
INSERT
  5
6D3
330
1F
100
AcDbEntity
  8
punkty
100
AcDbBlockReference
 66
     1
  2
G7PktPom
 10
8393660.928
 20
5720953.196
 30
135.1
 41
0.15
 42
0.15
 43
0.1
  0
ATTRIB
  5
6D4
330
6D3
100
AcDbEntity
  8
0
  6
Continuous
 62
     0
370
    -2
100
AcDbText
 10
8393661.077999998
 20
5720953.346
 30
135.1
 40
0.27
  1
3608
 41
0.8
 51
14.32394487827058
  7
G7Text
100
AcDbAttribute
  2
ID
 70
     0
280
     0
  0
ATTRIB
  5
6D5
330
6D3
100
AcDbEntity
  8
0
  6
Continuous
 62
     0
370
    -2
100
AcDbText
 10
8393661.077999998
 20
5720952.926000001
 30
135.1
 40
0.27
  1
135.100
 41
0.8
 51
14.32394487827058
  7
G7Text
100
AcDbAttribute
  2
H
 70
     0
280
     0
  0
SEQEND
  5
6D6
330
6D3
100
AcDbEntity
  8
punkty
  0
INSERT
  5
6D7
330
1F
100
AcDbEntity
  8
punkty
100
AcDbBlockReference
 66
     1
  2
G7PktPom
 10
8393645.388
 20
5720950.437
 30
132.32
 41
0.15
 42
0.15
 43
0.1
  0
ATTRIB
  5
6D8
330
6D7
100
AcDbEntity
  8
0
  6
Continuous
 62
     0
370
    -2
100
AcDbText
 10
8393645.537999999
 20
5720950.587
 30
132.32
 40
0.27
  1
3609
 41
0.8
 51
14.32394487827058
  7
G7Text
100
AcDbAttribute
  2
ID
 70
     0
280
     0
  0
ATTRIB
  5
6D9
330
6D7
100
AcDbEntity
  8
0
  6
Continuous
 62
     0
370
    -2
100
AcDbText
 10
8393645.537999999
 20
5720950.166999999
 30
132.32
 40
0.27
  1
132.320
 41
0.8
 51
14.32394487827058
  7
G7Text
100
AcDbAttribute
  2
H
 70
     0
280
     0
  0
SEQEND
  5
6DA
330
6D7
100
AcDbEntity
  8
punkty
  0
INSERT
  5
6DB
330
1F
100
AcDbEntity
  8
punkty
100
AcDbBlockReference
 66
     1
  2
G7PktPom
 10
8393633.731
 20
5720948.288
 30
135.24
 41
0.15
 42
0.15
 43
0.1
  0
ATTRIB
  5
6DC
330
6DB
100
AcDbEntity
  8
0
  6
Continuous
 62
     0
370
    -2
100
AcDbText
 10
8393633.881
 20
5720948.438
 30
135.24
 40
0.27
  1
3610
 41
0.8
 51
14.32394487827058
  7
G7Text
100
AcDbAttribute
  2
ID
 70
     0
280
     0
  0
ATTRIB
  5
6DD
330
6DB
100
AcDbEntity
  8
0
  6
Continuous
 62
     0
370
    -2
100
AcDbText
 10
8393633.881
 20
5720948.017999999
 30
135.24
 40
0.27
  1
135.240
 41
0.8
 51
14.32394487827058
  7
G7Text
100
AcDbAttribute
  2
H
 70
     0
280
     0
  0
SEQEND
  5
6DE
330
6DB
100
AcDbEntity
  8
punkty
  0
INSERT
  5
6DF
330
1F
100
AcDbEntity
  8
punkty
100
AcDbBlockReference
 66
     1
  2
G7PktPom
 10
8393620.015
 20
5720952.323
 30
135.02
 41
0.15
 42
0.15
 43
0.1
  0
ATTRIB
  5
6E0
330
6DF
100
AcDbEntity
  8
0
  6
Continuous
 62
     0
370
    -2
100
AcDbText
 10
8393620.165
 20
5720952.473
 30
135.02
 40
0.27
  1
3611
 41
0.8
 51
14.32394487827058
  7
G7Text
100
AcDbAttribute
  2
ID
 70
     0
280
     0
  0
ATTRIB
  5
6E1
330
6DF
100
AcDbEntity
  8
0
  6
Continuous
 62
     0
370
    -2
100
AcDbText
 10
8393620.165
 20
5720952.052999999
 30
135.02
 40
0.27
  1
135.020
 41
0.8
 51
14.32394487827058
  7
G7Text
100
AcDbAttribute
  2
H
 70
     0
280
     0
  0
SEQEND
  5
6E2
330
6DF
100
AcDbEntity
  8
punkty
  0
INSERT
  5
6E3
330
1F
100
AcDbEntity
  8
punkty
100
AcDbBlockReference
 66
     1
  2
G7PktPom
 10
8393613.693
 20
5720955.058
 30
134.98
 41
0.15
 42
0.15
 43
0.1
  0
ATTRIB
  5
6E4
330
6E3
100
AcDbEntity
  8
0
  6
Continuous
 62
     0
370
    -2
100
AcDbText
 10
8393613.843000002
 20
5720955.208
 30
134.98
 40
0.27
  1
3612
 41
0.8
 51
14.32394487827058
  7
G7Text
100
AcDbAttribute
  2
ID
 70
     0
280
     0
  0
ATTRIB
  5
6E5
330
6E3
100
AcDbEntity
  8
0
  6
Continuous
 62
     0
370
    -2
100
AcDbText
 10
8393613.843000002
 20
5720954.788000001
 30
134.98
 40
0.27
  1
134.980
 41
0.8
 51
14.32394487827058
  7
G7Text
100
AcDbAttribute
  2
H
 70
     0
280
     0
  0
SEQEND
  5
6E6
330
6E3
100
AcDbEntity
  8
punkty
  0
INSERT
  5
6E7
330
1F
100
AcDbEntity
  8
punkty
100
AcDbBlockReference
 66
     1
  2
G7PktPom
 10
8393609.591
 20
5720959.378
 30
133.48
 41
0.15
 42
0.15
 43
0.1
  0
ATTRIB
  5
6E8
330
6E7
100
AcDbEntity
  8
0
  6
Continuous
 62
     0
370
    -2
100
AcDbText
 10
8393609.740999999
 20
5720959.528
 30
133.48
 40
0.27
  1
3617
 41
0.8
 51
14.32394487827058
  7
G7Text
100
AcDbAttribute
  2
ID
 70
     0
280
     0
  0
ATTRIB
  5
6E9
330
6E7
100
AcDbEntity
  8
0
  6
Continuous
 62
     0
370
    -2
100
AcDbText
 10
8393609.740999999
 20
5720959.107999999
 30
133.48
 40
0.27
  1
133.480
 41
0.8
 51
14.32394487827058
  7
G7Text
100
AcDbAttribute
  2
H
 70
     0
280
     0
  0
SEQEND
  5
6EA
330
6E7
100
AcDbEntity
  8
punkty
  0
INSERT
  5
6EB
330
1F
100
AcDbEntity
  8
punkty
100
AcDbBlockReference
 66
     1
  2
G7PktPom
 10
8393610.202
 20
5720959.015
 30
133.57
 41
0.15
 42
0.15
 43
0.1
  0
ATTRIB
  5
6EC
330
6EB
100
AcDbEntity
  8
0
  6
Continuous
 62
     0
370
    -2
100
AcDbText
 10
8393610.351999998
 20
5720959.165
 30
133.57
 40
0.27
  1
3618
 41
0.8
 51
14.32394487827058
  7
G7Text
100
AcDbAttribute
  2
ID
 70
     0
280
     0
  0
ATTRIB
  5
6ED
330
6EB
100
AcDbEntity
  8
0
  6
Continuous
 62
     0
370
    -2
100
AcDbText
 10
8393610.351999998
 20
5720958.744999999
 30
133.57
 40
0.27
  1
133.570
 41
0.8
 51
14.32394487827058
  7
G7Text
100
AcDbAttribute
  2
H
 70
     0
280
     0
  0
SEQEND
  5
6EE
330
6EB
100
AcDbEntity
  8
punkty
  0
INSERT
  5
6EF
330
1F
100
AcDbEntity
  8
punkty
100
AcDbBlockReference
 66
     1
  2
G7PktPom
 10
8393611.815
 20
5720958.362
 30
134.96
 41
0.15
 42
0.15
 43
0.1
  0
ATTRIB
  5
6F0
330
6EF
100
AcDbEntity
  8
0
  6
Continuous
 62
     0
370
    -2
100
AcDbText
 10
8393611.964999998
 20
5720958.511999999
 30
134.96
 40
0.27
  1
3619
 41
0.8
 51
14.32394487827058
  7
G7Text
100
AcDbAttribute
  2
ID
 70
     0
280
     0
  0
ATTRIB
  5
6F1
330
6EF
100
AcDbEntity
  8
0
  6
Continuous
 62
     0
370
    -2
100
AcDbText
 10
8393611.964999998
 20
5720958.092
 30
134.96
 40
0.27
  1
134.960
 41
0.8
 51
14.32394487827058
  7
G7Text
100
AcDbAttribute
  2
H
 70
     0
280
     0
  0
SEQEND
  5
6F2
330
6EF
100
AcDbEntity
  8
punkty
  0
INSERT
  5
6F3
330
1F
100
AcDbEntity
  8
punkty
100
AcDbBlockReference
 66
     1
  2
G7PktPom
 10
8393611.972
 20
5720975.205
 30
133.63
 41
0.15
 42
0.15
 43
0.1
  0
ATTRIB
  5
6F4
330
6F3
100
AcDbEntity
  8
0
  6
Continuous
 62
     0
370
    -2
100
AcDbText
 10
8393612.122000001
 20
5720975.355
 30
133.63
 40
0.27
  1
3623
 41
0.8
 51
14.32394487827058
  7
G7Text
100
AcDbAttribute
  2
ID
 70
     0
280
     0
  0
ATTRIB
  5
6F5
330
6F3
100
AcDbEntity
  8
0
  6
Continuous
 62
     0
370
    -2
100
AcDbText
 10
8393612.122000001
 20
5720974.935000001
 30
133.63
 40
0.27
  1
133.630
 41
0.8
 51
14.32394487827058
  7
G7Text
100
AcDbAttribute
  2
H
 70
     0
280
     0
  0
SEQEND
  5
6F6
330
6F3
100
AcDbEntity
  8
punkty
  0
INSERT
  5
6F7
330
1F
100
AcDbEntity
  8
punkty
100
AcDbBlockReference
 66
     1
  2
G7PktPom
 10
8393608.573
 20
5720974.889
 30
135.22
 41
0.15
 42
0.15
 43
0.1
  0
ATTRIB
  5
6F8
330
6F7
100
AcDbEntity
  8
0
  6
Continuous
 62
     0
370
    -2
100
AcDbText
 10
8393608.723
 20
5720975.039
 30
135.22
 40
0.27
  1
3626
 41
0.8
 51
14.32394487827058
  7
G7Text
100
AcDbAttribute
  2
ID
 70
     0
280
     0
  0
ATTRIB
  5
6F9
330
6F7
100
AcDbEntity
  8
0
  6
Continuous
 62
     0
370
    -2
100
AcDbText
 10
8393608.723
 20
5720974.619000001
 30
135.22
 40
0.27
  1
135.220
 41
0.8
 51
14.32394487827058
  7
G7Text
100
AcDbAttribute
  2
H
 70
     0
280
     0
  0
SEQEND
  5
6FA
330
6F7
100
AcDbEntity
  8
punkty
  0
INSERT
  5
6FB
330
1F
100
AcDbEntity
  8
punkty
100
AcDbBlockReference
 66
     1
  2
G7PktPom
 10
8393601.434
 20
5720978.838
 30
135.03
 41
0.15
 42
0.15
 43
0.1
  0
ATTRIB
  5
6FC
330
6FB
100
AcDbEntity
  8
0
  6
Continuous
 62
     0
370
    -2
100
AcDbText
 10
8393601.584000003
 20
5720978.988000001
 30
135.03
 40
0.27
  1
3627
 41
0.8
 51
14.32394487827058
  7
G7Text
100
AcDbAttribute
  2
ID
 70
     0
280
     0
  0
ATTRIB
  5
6FD
330
6FB
100
AcDbEntity
  8
0
  6
Continuous
 62
     0
370
    -2
100
AcDbText
 10
8393601.584000003
 20
5720978.568
 30
135.03
 40
0.27
  1
135.030
 41
0.8
 51
14.32394487827058
  7
G7Text
100
AcDbAttribute
  2
H
 70
     0
280
     0
  0
SEQEND
  5
6FE
330
6FB
100
AcDbEntity
  8
punkty
  0
INSERT
  5
6FF
330
1F
100
AcDbEntity
  8
punkty
100
AcDbBlockReference
 66
     1
  2
G7PktPom
 10
8393602.178
 20
5720980.339
 30
133.8
 41
0.15
 42
0.15
 43
0.1
  0
ATTRIB
  5
700
330
6FF
100
AcDbEntity
  8
0
  6
Continuous
 62
     0
370
    -2
100
AcDbText
 10
8393602.327999998
 20
5720980.488999999
 30
133.8
 40
0.27
  1
3628
 41
0.8
 51
14.32394487827058
  7
G7Text
100
AcDbAttribute
  2
ID
 70
     0
280
     0
  0
ATTRIB
  5
701
330
6FF
100
AcDbEntity
  8
0
  6
Continuous
 62
     0
370
    -2
100
AcDbText
 10
8393602.327999998
 20
5720980.069
 30
133.8
 40
0.27
  1
133.800
 41
0.8
 51
14.32394487827058
  7
G7Text
100
AcDbAttribute
  2
H
 70
     0
280
     0
  0
SEQEND
  5
702
330
6FF
100
AcDbEntity
  8
punkty
  0
INSERT
  5
703
330
1F
100
AcDbEntity
  8
punkty
100
AcDbBlockReference
 66
     1
  2
G7PktPom
 10
8393593.172
 20
5720987.039
 30
134.32
 41
0.15
 42
0.15
 43
0.1
  0
ATTRIB
  5
704
330
703
100
AcDbEntity
  8
0
  6
Continuous
 62
     0
370
    -2
100
AcDbText
 10
8393593.321999999
 20
5720987.189
 30
134.32
 40
0.27
  1
3629
 41
0.8
 51
14.32394487827058
  7
G7Text
100
AcDbAttribute
  2
ID
 70
     0
280
     0
  0
ATTRIB
  5
705
330
703
100
AcDbEntity
  8
0
  6
Continuous
 62
     0
370
    -2
100
AcDbText
 10
8393593.321999999
 20
5720986.769
 30
134.32
 40
0.27
  1
134.320
 41
0.8
 51
14.32394487827058
  7
G7Text
100
AcDbAttribute
  2
H
 70
     0
280
     0
  0
SEQEND
  5
706
330
703
100
AcDbEntity
  8
punkty
  0
INSERT
  5
707
330
1F
100
AcDbEntity
  8
punkty
100
AcDbBlockReference
 66
     1
  2
G7PktPom
 10
8393592.324
 20
5720986.406
 30
134.85
 41
0.15
 42
0.15
 43
0.1
  0
ATTRIB
  5
708
330
707
100
AcDbEntity
  8
0
  6
Continuous
 62
     0
370
    -2
100
AcDbText
 10
8393592.473999998
 20
5720986.556000001
 30
134.85
 40
0.27
  1
3630
 41
0.8
 51
14.32394487827058
  7
G7Text
100
AcDbAttribute
  2
ID
 70
     0
280
     0
  0
ATTRIB
  5
709
330
707
100
AcDbEntity
  8
0
  6
Continuous
 62
     0
370
    -2
100
AcDbText
 10
8393592.473999998
 20
5720986.136
 30
134.85
 40
0.27
  1
134.850
 41
0.8
 51
14.32394487827058
  7
G7Text
100
AcDbAttribute
  2
H
 70
     0
280
     0
  0
SEQEND
  5
70A
330
707
100
AcDbEntity
  8
punkty
  0
INSERT
  5
70B
330
1F
100
AcDbEntity
  8
punkty
100
AcDbBlockReference
 66
     1
  2
G7PktPom
 10
8393593.745
 20
5720987.793
 30
134.18
 41
0.15
 42
0.15
 43
0.1
  0
ATTRIB
  5
70C
330
70B
100
AcDbEntity
  8
0
  6
Continuous
 62
     0
370
    -2
100
AcDbText
 10
8393593.894999998
 20
5720987.942999999
 30
134.18
 40
0.27
  1
3631
 41
0.8
 51
14.32394487827058
  7
G7Text
100
AcDbAttribute
  2
ID
 70
     0
280
     0
  0
ATTRIB
  5
70D
330
70B
100
AcDbEntity
  8
0
  6
Continuous
 62
     0
370
    -2
100
AcDbText
 10
8393593.894999998
 20
5720987.523
 30
134.18
 40
0.27
  1
134.180
 41
0.8
 51
14.32394487827058
  7
G7Text
100
AcDbAttribute
  2
H
 70
     0
280
     0
  0
SEQEND
  5
70E
330
70B
100
AcDbEntity
  8
punkty
  0
INSERT
  5
70F
330
1F
100
AcDbEntity
  8
punkty
100
AcDbBlockReference
 66
     1
  2
G7PktPom
 10
8393595.362
 20
5720988.683
 30
135.25
 41
0.15
 42
0.15
 43
0.1
  0
ATTRIB
  5
710
330
70F
100
AcDbEntity
  8
0
  6
Continuous
 62
     0
370
    -2
100
AcDbText
 10
8393595.511999998
 20
5720988.833
 30
135.25
 40
0.27
  1
3632
 41
0.8
 51
14.32394487827058
  7
G7Text
100
AcDbAttribute
  2
ID
 70
     0
280
     0
  0
ATTRIB
  5
711
330
70F
100
AcDbEntity
  8
0
  6
Continuous
 62
     0
370
    -2
100
AcDbText
 10
8393595.511999998
 20
5720988.413000001
 30
135.25
 40
0.27
  1
135.250
 41
0.8
 51
14.32394487827058
  7
G7Text
100
AcDbAttribute
  2
H
 70
     0
280
     0
  0
SEQEND
  5
712
330
70F
100
AcDbEntity
  8
punkty
  0
INSERT
  5
713
330
1F
100
AcDbEntity
  8
punkty
100
AcDbBlockReference
 66
     1
  2
G7PktPom
 10
8393603.305
 20
5720983.81
 30
135.18
 41
0.15
 42
0.15
 43
0.1
  0
ATTRIB
  5
714
330
713
100
AcDbEntity
  8
0
  6
Continuous
 62
     0
370
    -2
100
AcDbText
 10
8393603.454999998
 20
5720983.96
 30
135.18
 40
0.27
  1
3633
 41
0.8
 51
14.32394487827058
  7
G7Text
100
AcDbAttribute
  2
ID
 70
     0
280
     0
  0
ATTRIB
  5
715
330
713
100
AcDbEntity
  8
0
  6
Continuous
 62
     0
370
    -2
100
AcDbText
 10
8393603.454999998
 20
5720983.54
 30
135.18
 40
0.27
  1
135.180
 41
0.8
 51
14.32394487827058
  7
G7Text
100
AcDbAttribute
  2
H
 70
     0
280
     0
  0
SEQEND
  5
716
330
713
100
AcDbEntity
  8
punkty
  0
INSERT
  5
717
330
1F
100
AcDbEntity
  8
punkty
100
AcDbBlockReference
 66
     1
  2
G7PktPom
 10
8393602.333
 20
5720982.062
 30
134.02
 41
0.15
 42
0.15
 43
0.1
  0
ATTRIB
  5
718
330
717
100
AcDbEntity
  8
0
  6
Continuous
 62
     0
370
    -2
100
AcDbText
 10
8393602.483000003
 20
5720982.212
 30
134.02
 40
0.27
  1
3634
 41
0.8
 51
14.32394487827058
  7
G7Text
100
AcDbAttribute
  2
ID
 70
     0
280
     0
  0
ATTRIB
  5
719
330
717
100
AcDbEntity
  8
0
  6
Continuous
 62
     0
370
    -2
100
AcDbText
 10
8393602.483000003
 20
5720981.791999999
 30
134.02
 40
0.27
  1
134.020
 41
0.8
 51
14.32394487827058
  7
G7Text
100
AcDbAttribute
  2
H
 70
     0
280
     0
  0
SEQEND
  5
71A
330
717
100
AcDbEntity
  8
punkty
  0
INSERT
  5
71B
330
1F
100
AcDbEntity
  8
punkty
100
AcDbBlockReference
 66
     1
  2
G7PktPom
 10
8393610.813
 20
5720980.24
 30
135.11
 41
0.15
 42
0.15
 43
0.1
  0
ATTRIB
  5
71C
330
71B
100
AcDbEntity
  8
0
  6
Continuous
 62
     0
370
    -2
100
AcDbText
 10
8393610.962999998
 20
5720980.39
 30
135.11
 40
0.27
  1
3635
 41
0.8
 51
14.32394487827058
  7
G7Text
100
AcDbAttribute
  2
ID
 70
     0
280
     0
  0
ATTRIB
  5
71D
330
71B
100
AcDbEntity
  8
0
  6
Continuous
 62
     0
370
    -2
100
AcDbText
 10
8393610.962999998
 20
5720979.970000001
 30
135.11
 40
0.27
  1
135.110
 41
0.8
 51
14.32394487827058
  7
G7Text
100
AcDbAttribute
  2
H
 70
     0
280
     0
  0
SEQEND
  5
71E
330
71B
100
AcDbEntity
  8
punkty
  0
INSERT
  5
71F
330
1F
100
AcDbEntity
  8
punkty
100
AcDbBlockReference
 66
     1
  2
G7PktPom
 10
8393609.553
 20
5720977.963
 30
133.59
 41
0.15
 42
0.15
 43
0.1
  0
ATTRIB
  5
720
330
71F
100
AcDbEntity
  8
0
  6
Continuous
 62
     0
370
    -2
100
AcDbText
 10
8393609.702999998
 20
5720978.113000001
 30
133.59
 40
0.27
  1
3636
 41
0.8
 51
14.32394487827058
  7
G7Text
100
AcDbAttribute
  2
ID
 70
     0
280
     0
  0
ATTRIB
  5
721
330
71F
100
AcDbEntity
  8
0
  6
Continuous
 62
     0
370
    -2
100
AcDbText
 10
8393609.702999998
 20
5720977.693
 30
133.59
 40
0.27
  1
133.590
 41
0.8
 51
14.32394487827058
  7
G7Text
100
AcDbAttribute
  2
H
 70
     0
280
     0
  0
SEQEND
  5
722
330
71F
100
AcDbEntity
  8
punkty
  0
INSERT
  5
723
330
1F
100
AcDbEntity
  8
punkty
100
AcDbBlockReference
 66
     1
  2
G7PktPom
 10
8393614.948
 20
5720976.654
 30
133.52
 41
0.15
 42
0.15
 43
0.1
  0
ATTRIB
  5
724
330
723
100
AcDbEntity
  8
0
  6
Continuous
 62
     0
370
    -2
100
AcDbText
 10
8393615.098
 20
5720976.804
 30
133.52
 40
0.27
  1
3637
 41
0.8
 51
14.32394487827058
  7
G7Text
100
AcDbAttribute
  2
ID
 70
     0
280
     0
  0
ATTRIB
  5
725
330
723
100
AcDbEntity
  8
0
  6
Continuous
 62
     0
370
    -2
100
AcDbText
 10
8393615.098
 20
5720976.384
 30
133.52
 40
0.27
  1
133.520
 41
0.8
 51
14.32394487827058
  7
G7Text
100
AcDbAttribute
  2
H
 70
     0
280
     0
  0
SEQEND
  5
726
330
723
100
AcDbEntity
  8
punkty
  0
INSERT
  5
727
330
1F
100
AcDbEntity
  8
punkty
100
AcDbBlockReference
 66
     1
  2
G7PktPom
 10
8393615.7
 20
5720979.168
 30
135.08
 41
0.15
 42
0.15
 43
0.1
  0
ATTRIB
  5
728
330
727
100
AcDbEntity
  8
0
  6
Continuous
 62
     0
370
    -2
100
AcDbText
 10
8393615.850000001
 20
5720979.317999999
 30
135.08
 40
0.27
  1
3638
 41
0.8
 51
14.32394487827058
  7
G7Text
100
AcDbAttribute
  2
ID
 70
     0
280
     0
  0
ATTRIB
  5
729
330
727
100
AcDbEntity
  8
0
  6
Continuous
 62
     0
370
    -2
100
AcDbText
 10
8393615.850000001
 20
5720978.898
 30
135.08
 40
0.27
  1
135.080
 41
0.8
 51
14.32394487827058
  7
G7Text
100
AcDbAttribute
  2
H
 70
     0
280
     0
  0
SEQEND
  5
72A
330
727
100
AcDbEntity
  8
punkty
  0
INSERT
  5
72B
330
1F
100
AcDbEntity
  8
punkty
100
AcDbBlockReference
 66
     1
  2
G7PktPom
 10
8393625.049
 20
5720979.699
 30
135.07
 41
0.15
 42
0.15
 43
0.1
  0
ATTRIB
  5
72C
330
72B
100
AcDbEntity
  8
0
  6
Continuous
 62
     0
370
    -2
100
AcDbText
 10
8393625.199
 20
5720979.849
 30
135.07
 40
0.27
  1
3639
 41
0.8
 51
14.32394487827058
  7
G7Text
100
AcDbAttribute
  2
ID
 70
     0
280
     0
  0
ATTRIB
  5
72D
330
72B
100
AcDbEntity
  8
0
  6
Continuous
 62
     0
370
    -2
100
AcDbText
 10
8393625.199
 20
5720979.429
 30
135.07
 40
0.27
  1
135.070
 41
0.8
 51
14.32394487827058
  7
G7Text
100
AcDbAttribute
  2
H
 70
     0
280
     0
  0
SEQEND
  5
72E
330
72B
100
AcDbEntity
  8
punkty
  0
INSERT
  5
72F
330
1F
100
AcDbEntity
  8
punkty
100
AcDbBlockReference
 66
     1
  2
G7PktPom
 10
8393626.245
 20
5720974.963
 30
135.19
 41
0.15
 42
0.15
 43
0.1
  0
ATTRIB
  5
730
330
72F
100
AcDbEntity
  8
0
  6
Continuous
 62
     0
370
    -2
100
AcDbText
 10
8393626.394999998
 20
5720975.113000001
 30
135.19
 40
0.27
  1
3642
 41
0.8
 51
14.32394487827058
  7
G7Text
100
AcDbAttribute
  2
ID
 70
     0
280
     0
  0
ATTRIB
  5
731
330
72F
100
AcDbEntity
  8
0
  6
Continuous
 62
     0
370
    -2
100
AcDbText
 10
8393626.394999998
 20
5720974.693
 30
135.19
 40
0.27
  1
135.190
 41
0.8
 51
14.32394487827058
  7
G7Text
100
AcDbAttribute
  2
H
 70
     0
280
     0
  0
SEQEND
  5
732
330
72F
100
AcDbEntity
  8
punkty
  0
INSERT
  5
733
330
1F
100
AcDbEntity
  8
punkty
100
AcDbBlockReference
 66
     1
  2
G7PktPom
 10
8393634.948
 20
5720978.481
 30
135.28
 41
0.15
 42
0.15
 43
0.1
  0
ATTRIB
  5
734
330
733
100
AcDbEntity
  8
0
  6
Continuous
 62
     0
370
    -2
100
AcDbText
 10
8393635.098
 20
5720978.631
 30
135.28
 40
0.27
  1
3643
 41
0.8
 51
14.32394487827058
  7
G7Text
100
AcDbAttribute
  2
ID
 70
     0
280
     0
  0
ATTRIB
  5
735
330
733
100
AcDbEntity
  8
0
  6
Continuous
 62
     0
370
    -2
100
AcDbText
 10
8393635.098
 20
5720978.211
 30
135.28
 40
0.27
  1
135.280
 41
0.8
 51
14.32394487827058
  7
G7Text
100
AcDbAttribute
  2
H
 70
     0
280
     0
  0
SEQEND
  5
736
330
733
100
AcDbEntity
  8
punkty
  0
INSERT
  5
737
330
1F
100
AcDbEntity
  8
punkty
100
AcDbBlockReference
 66
     1
  2
G7PktPom
 10
8393634.547
 20
5720980.245
 30
134.17
 41
0.15
 42
0.15
 43
0.1
  0
ATTRIB
  5
738
330
737
100
AcDbEntity
  8
0
  6
Continuous
 62
     0
370
    -2
100
AcDbText
 10
8393634.696999999
 20
5720980.395
 30
134.17
 40
0.27
  1
3644
 41
0.8
 51
14.32394487827058
  7
G7Text
100
AcDbAttribute
  2
ID
 70
     0
280
     0
  0
ATTRIB
  5
739
330
737
100
AcDbEntity
  8
0
  6
Continuous
 62
     0
370
    -2
100
AcDbText
 10
8393634.696999999
 20
5720979.975
 30
134.17
 40
0.27
  1
134.170
 41
0.8
 51
14.32394487827058
  7
G7Text
100
AcDbAttribute
  2
H
 70
     0
280
     0
  0
SEQEND
  5
73A
330
737
100
AcDbEntity
  8
punkty
  0
INSERT
  5
73B
330
1F
100
AcDbEntity
  8
punkty
100
AcDbBlockReference
 66
     1
  2
G7PktPom
 10
8393634.254
 20
5720980.806
 30
134.1
 41
0.15
 42
0.15
 43
0.1
  0
ATTRIB
  5
73C
330
73B
100
AcDbEntity
  8
0
  6
Continuous
 62
     0
370
    -2
100
AcDbText
 10
8393634.404
 20
5720980.955999999
 30
134.1
 40
0.27
  1
3645
 41
0.8
 51
14.32394487827058
  7
G7Text
100
AcDbAttribute
  2
ID
 70
     0
280
     0
  0
ATTRIB
  5
73D
330
73B
100
AcDbEntity
  8
0
  6
Continuous
 62
     0
370
    -2
100
AcDbText
 10
8393634.404
 20
5720980.536
 30
134.1
 40
0.27
  1
134.100
 41
0.8
 51
14.32394487827058
  7
G7Text
100
AcDbAttribute
  2
H
 70
     0
280
     0
  0
SEQEND
  5
73E
330
73B
100
AcDbEntity
  8
punkty
  0
INSERT
  5
73F
330
1F
100
AcDbEntity
  8
punkty
100
AcDbBlockReference
 66
     1
  2
G7PktPom
 10
8393633.604
 20
5720982.302
 30
134.95
 41
0.15
 42
0.15
 43
0.1
  0
ATTRIB
  5
740
330
73F
100
AcDbEntity
  8
0
  6
Continuous
 62
     0
370
    -2
100
AcDbText
 10
8393633.753999999
 20
5720982.452000001
 30
134.95
 40
0.27
  1
3646
 41
0.8
 51
14.32394487827058
  7
G7Text
100
AcDbAttribute
  2
ID
 70
     0
280
     0
  0
ATTRIB
  5
741
330
73F
100
AcDbEntity
  8
0
  6
Continuous
 62
     0
370
    -2
100
AcDbText
 10
8393633.753999999
 20
5720982.032000001
 30
134.95
 40
0.27
  1
134.950
 41
0.8
 51
14.32394487827058
  7
G7Text
100
AcDbAttribute
  2
H
 70
     0
280
     0
  0
SEQEND
  5
742
330
73F
100
AcDbEntity
  8
punkty
  0
INSERT
  5
743
330
1F
100
AcDbEntity
  8
punkty
100
AcDbBlockReference
 66
     1
  2
G7PktPom
 10
8393649.749
 20
5720992.685
 30
135.09
 41
0.15
 42
0.15
 43
0.1
  0
ATTRIB
  5
744
330
743
100
AcDbEntity
  8
0
  6
Continuous
 62
     0
370
    -2
100
AcDbText
 10
8393649.898999998
 20
5720992.835
 30
135.09
 40
0.27
  1
3647
 41
0.8
 51
14.32394487827058
  7
G7Text
100
AcDbAttribute
  2
ID
 70
     0
280
     0
  0
ATTRIB
  5
745
330
743
100
AcDbEntity
  8
0
  6
Continuous
 62
     0
370
    -2
100
AcDbText
 10
8393649.898999998
 20
5720992.414999999
 30
135.09
 40
0.27
  1
135.090
 41
0.8
 51
14.32394487827058
  7
G7Text
100
AcDbAttribute
  2
H
 70
     0
280
     0
  0
SEQEND
  5
746
330
743
100
AcDbEntity
  8
punkty
  0
INSERT
  5
747
330
1F
100
AcDbEntity
  8
punkty
100
AcDbBlockReference
 66
     1
  2
G7PktPom
 10
8393650.625
 20
5720992.063
 30
134.58
 41
0.15
 42
0.15
 43
0.1
  0
ATTRIB
  5
748
330
747
100
AcDbEntity
  8
0
  6
Continuous
 62
     0
370
    -2
100
AcDbText
 10
8393650.774999999
 20
5720992.213
 30
134.58
 40
0.27
  1
3648
 41
0.8
 51
14.32394487827058
  7
G7Text
100
AcDbAttribute
  2
ID
 70
     0
280
     0
  0
ATTRIB
  5
749
330
747
100
AcDbEntity
  8
0
  6
Continuous
 62
     0
370
    -2
100
AcDbText
 10
8393650.774999999
 20
5720991.793
 30
134.58
 40
0.27
  1
134.580
 41
0.8
 51
14.32394487827058
  7
G7Text
100
AcDbAttribute
  2
H
 70
     0
280
     0
  0
SEQEND
  5
74A
330
747
100
AcDbEntity
  8
punkty
  0
INSERT
  5
74B
330
1F
100
AcDbEntity
  8
punkty
100
AcDbBlockReference
 66
     1
  2
G7PktPom
 10
8393651.12
 20
5720991.568
 30
134.59
 41
0.15
 42
0.15
 43
0.1
  0
ATTRIB
  5
74C
330
74B
100
AcDbEntity
  8
0
  6
Continuous
 62
     0
370
    -2
100
AcDbText
 10
8393651.269999998
 20
5720991.717999999
 30
134.59
 40
0.27
  1
3649
 41
0.8
 51
14.32394487827058
  7
G7Text
100
AcDbAttribute
  2
ID
 70
     0
280
     0
  0
ATTRIB
  5
74D
330
74B
100
AcDbEntity
  8
0
  6
Continuous
 62
     0
370
    -2
100
AcDbText
 10
8393651.269999998
 20
5720991.298
 30
134.59
 40
0.27
  1
134.590
 41
0.8
 51
14.32394487827058
  7
G7Text
100
AcDbAttribute
  2
H
 70
     0
280
     0
  0
SEQEND
  5
74E
330
74B
100
AcDbEntity
  8
punkty
  0
INSERT
  5
74F
330
1F
100
AcDbEntity
  8
punkty
100
AcDbBlockReference
 66
     1
  2
G7PktPom
 10
8393651.912
 20
5720990.933
 30
135.24
 41
0.15
 42
0.15
 43
0.1
  0
ATTRIB
  5
750
330
74F
100
AcDbEntity
  8
0
  6
Continuous
 62
     0
370
    -2
100
AcDbText
 10
8393652.061999999
 20
5720991.083
 30
135.24
 40
0.27
  1
3650
 41
0.8
 51
14.32394487827058
  7
G7Text
100
AcDbAttribute
  2
ID
 70
     0
280
     0
  0
ATTRIB
  5
751
330
74F
100
AcDbEntity
  8
0
  6
Continuous
 62
     0
370
    -2
100
AcDbText
 10
8393652.061999999
 20
5720990.663000001
 30
135.24
 40
0.27
  1
135.240
 41
0.8
 51
14.32394487827058
  7
G7Text
100
AcDbAttribute
  2
H
 70
     0
280
     0
  0
SEQEND
  5
752
330
74F
100
AcDbEntity
  8
punkty
  0
INSERT
  5
753
330
1F
100
AcDbEntity
  8
punkty
100
AcDbBlockReference
 66
     1
  2
G7PktPom
 10
8393657.879
 20
5720998.49
 30
135.17
 41
0.15
 42
0.15
 43
0.1
  0
ATTRIB
  5
754
330
753
100
AcDbEntity
  8
0
  6
Continuous
 62
     0
370
    -2
100
AcDbText
 10
8393658.029
 20
5720998.64
 30
135.17
 40
0.27
  1
3651
 41
0.8
 51
14.32394487827058
  7
G7Text
100
AcDbAttribute
  2
ID
 70
     0
280
     0
  0
ATTRIB
  5
755
330
753
100
AcDbEntity
  8
0
  6
Continuous
 62
     0
370
    -2
100
AcDbText
 10
8393658.029
 20
5720998.220000001
 30
135.17
 40
0.27
  1
135.170
 41
0.8
 51
14.32394487827058
  7
G7Text
100
AcDbAttribute
  2
H
 70
     0
280
     0
  0
SEQEND
  5
756
330
753
100
AcDbEntity
  8
punkty
  0
INSERT
  5
757
330
1F
100
AcDbEntity
  8
punkty
100
AcDbBlockReference
 66
     1
  2
G7PktPom
 10
8393657.015
 20
5720999.06
 30
134.61
 41
0.15
 42
0.15
 43
0.1
  0
ATTRIB
  5
758
330
757
100
AcDbEntity
  8
0
  6
Continuous
 62
     0
370
    -2
100
AcDbText
 10
8393657.165000003
 20
5720999.21
 30
134.61
 40
0.27
  1
3652
 41
0.8
 51
14.32394487827058
  7
G7Text
100
AcDbAttribute
  2
ID
 70
     0
280
     0
  0
ATTRIB
  5
759
330
757
100
AcDbEntity
  8
0
  6
Continuous
 62
     0
370
    -2
100
AcDbText
 10
8393657.165000003
 20
5720998.789999999
 30
134.61
 40
0.27
  1
134.610
 41
0.8
 51
14.32394487827058
  7
G7Text
100
AcDbAttribute
  2
H
 70
     0
280
     0
  0
SEQEND
  5
75A
330
757
100
AcDbEntity
  8
punkty
  0
INSERT
  5
75B
330
1F
100
AcDbEntity
  8
punkty
100
AcDbBlockReference
 66
     1
  2
G7PktPom
 10
8393656.441
 20
5720999.489
 30
134.59
 41
0.15
 42
0.15
 43
0.1
  0
ATTRIB
  5
75C
330
75B
100
AcDbEntity
  8
0
  6
Continuous
 62
     0
370
    -2
100
AcDbText
 10
8393656.590999998
 20
5720999.639
 30
134.59
 40
0.27
  1
3653
 41
0.8
 51
14.32394487827058
  7
G7Text
100
AcDbAttribute
  2
ID
 70
     0
280
     0
  0
ATTRIB
  5
75D
330
75B
100
AcDbEntity
  8
0
  6
Continuous
 62
     0
370
    -2
100
AcDbText
 10
8393656.590999998
 20
5720999.219000001
 30
134.59
 40
0.27
  1
134.590
 41
0.8
 51
14.32394487827058
  7
G7Text
100
AcDbAttribute
  2
H
 70
     0
280
     0
  0
SEQEND
  5
75E
330
75B
100
AcDbEntity
  8
punkty
  0
INSERT
  5
75F
330
1F
100
AcDbEntity
  8
punkty
100
AcDbBlockReference
 66
     1
  2
G7PktPom
 10
8393587.555
 20
5720999.003
 30
135.42
 41
0.15
 42
0.15
 43
0.1
  0
ATTRIB
  5
760
330
75F
100
AcDbEntity
  8
0
  6
Continuous
 62
     0
370
    -2
100
AcDbText
 10
8393587.704999998
 20
5720999.153
 30
135.42
 40
0.27
  1
7949
 41
0.8
 51
14.32394487827058
  7
G7Text
100
AcDbAttribute
  2
ID
 70
     0
280
     0
  0
ATTRIB
  5
761
330
75F
100
AcDbEntity
  8
0
  6
Continuous
 62
     0
370
    -2
100
AcDbText
 10
8393587.704999998
 20
5720998.732999999
 30
135.42
 40
0.27
  1
135.420
 41
0.8
 51
14.32394487827058
  7
G7Text
100
AcDbAttribute
  2
H
 70
     0
280
     0
  0
SEQEND
  5
762
330
75F
100
AcDbEntity
  8
punkty
  0
INSERT
  5
763
330
1F
100
AcDbEntity
  8
punkty
100
AcDbBlockReference
 66
     1
  2
G7PktPom
 10
8393594.706
 20
5720990.225
 30
135.3
 41
0.15
 42
0.15
 43
0.1
  0
ATTRIB
  5
764
330
763
100
AcDbEntity
  8
0
  6
Continuous
 62
     0
370
    -2
100
AcDbText
 10
8393594.855999999
 20
5720990.374999999
 30
135.3
 40
0.27
  1
7950
 41
0.8
 51
14.32394487827058
  7
G7Text
100
AcDbAttribute
  2
ID
 70
     0
280
     0
  0
ATTRIB
  5
765
330
763
100
AcDbEntity
  8
0
  6
Continuous
 62
     0
370
    -2
100
AcDbText
 10
8393594.855999999
 20
5720989.955
 30
135.3
 40
0.27
  1
135.300
 41
0.8
 51
14.32394487827058
  7
G7Text
100
AcDbAttribute
  2
H
 70
     0
280
     0
  0
SEQEND
  5
766
330
763
100
AcDbEntity
  8
punkty
  0
INSERT
  5
767
330
1F
100
AcDbEntity
  8
punkty
100
AcDbBlockReference
 66
     1
  2
G7PktPom
 10
8393602.377
 20
5720985.126
 30
135.2
 41
0.15
 42
0.15
 43
0.1
  0
ATTRIB
  5
768
330
767
100
AcDbEntity
  8
0
  6
Continuous
 62
     0
370
    -2
100
AcDbText
 10
8393602.527000003
 20
5720985.276
 30
135.2
 40
0.27
  1
7951
 41
0.8
 51
14.32394487827058
  7
G7Text
100
AcDbAttribute
  2
ID
 70
     0
280
     0
  0
ATTRIB
  5
769
330
767
100
AcDbEntity
  8
0
  6
Continuous
 62
     0
370
    -2
100
AcDbText
 10
8393602.527000003
 20
5720984.856000001
 30
135.2
 40
0.27
  1
135.200
 41
0.8
 51
14.32394487827058
  7
G7Text
100
AcDbAttribute
  2
H
 70
     0
280
     0
  0
SEQEND
  5
76A
330
767
100
AcDbEntity
  8
punkty
  0
INSERT
  5
76B
330
1F
100
AcDbEntity
  8
punkty
100
AcDbBlockReference
 66
     1
  2
G7PktPom
 10
8393612.743
 20
5720981.825
 30
135.11
 41
0.15
 42
0.15
 43
0.1
  0
ATTRIB
  5
76C
330
76B
100
AcDbEntity
  8
0
  6
Continuous
 62
     0
370
    -2
100
AcDbText
 10
8393612.893
 20
5720981.975000001
 30
135.11
 40
0.27
  1
7952
 41
0.8
 51
14.32394487827058
  7
G7Text
100
AcDbAttribute
  2
ID
 70
     0
280
     0
  0
ATTRIB
  5
76D
330
76B
100
AcDbEntity
  8
0
  6
Continuous
 62
     0
370
    -2
100
AcDbText
 10
8393612.893
 20
5720981.555000001
 30
135.11
 40
0.27
  1
135.110
 41
0.8
 51
14.32394487827058
  7
G7Text
100
AcDbAttribute
  2
H
 70
     0
280
     0
  0
SEQEND
  5
76E
330
76B
100
AcDbEntity
  8
punkty
  0
INSERT
  5
76F
330
1F
100
AcDbEntity
  8
punkty
100
AcDbBlockReference
 66
     1
  2
G7PktPom
 10
8393621.795
 20
5720981.045
 30
135.02
 41
0.15
 42
0.15
 43
0.1
  0
ATTRIB
  5
770
330
76F
100
AcDbEntity
  8
0
  6
Continuous
 62
     0
370
    -2
100
AcDbText
 10
8393621.944999998
 20
5720981.194999999
 30
135.02
 40
0.27
  1
7953
 41
0.8
 51
14.32394487827058
  7
G7Text
100
AcDbAttribute
  2
ID
 70
     0
280
     0
  0
ATTRIB
  5
771
330
76F
100
AcDbEntity
  8
0
  6
Continuous
 62
     0
370
    -2
100
AcDbText
 10
8393621.944999998
 20
5720980.775
 30
135.02
 40
0.27
  1
135.020
 41
0.8
 51
14.32394487827058
  7
G7Text
100
AcDbAttribute
  2
H
 70
     0
280
     0
  0
SEQEND
  5
772
330
76F
100
AcDbEntity
  8
punkty
  0
INSERT
  5
773
330
1F
100
AcDbEntity
  8
punkty
100
AcDbBlockReference
 66
     1
  2
G7PktPom
 10
8393630.297
 20
5720982.422
 30
134.94
 41
0.15
 42
0.15
 43
0.1
  0
ATTRIB
  5
774
330
773
100
AcDbEntity
  8
0
  6
Continuous
 62
     0
370
    -2
100
AcDbText
 10
8393630.446999999
 20
5720982.572
 30
134.94
 40
0.27
  1
7954
 41
0.8
 51
14.32394487827058
  7
G7Text
100
AcDbAttribute
  2
ID
 70
     0
280
     0
  0
ATTRIB
  5
775
330
773
100
AcDbEntity
  8
0
  6
Continuous
 62
     0
370
    -2
100
AcDbText
 10
8393630.446999999
 20
5720982.152000001
 30
134.94
 40
0.27
  1
134.940
 41
0.8
 51
14.32394487827058
  7
G7Text
100
AcDbAttribute
  2
H
 70
     0
280
     0
  0
SEQEND
  5
776
330
773
100
AcDbEntity
  8
punkty
  0
INSERT
  5
777
330
1F
100
AcDbEntity
  8
punkty
100
AcDbBlockReference
 66
     1
  2
G7PktPom
 10
8393584.065
 20
5721000.623
 30
134.71
 41
0.15
 42
0.15
 43
0.1
  0
ATTRIB
  5
778
330
777
100
AcDbEntity
  8
0
  6
Continuous
 62
     0
370
    -2
100
AcDbText
 10
8393584.214999998
 20
5721000.772999999
 30
134.71
 40
0.27
  1
8210
 41
0.8
 51
14.32394487827058
  7
G7Text
100
AcDbAttribute
  2
ID
 70
     0
280
     0
  0
ATTRIB
  5
779
330
777
100
AcDbEntity
  8
0
  6
Continuous
 62
     0
370
    -2
100
AcDbText
 10
8393584.214999998
 20
5721000.353
 30
134.71
 40
0.27
  1
134.710
 41
0.8
 51
14.32394487827058
  7
G7Text
100
AcDbAttribute
  2
H
 70
     0
280
     0
  0
SEQEND
  5
77A
330
777
100
AcDbEntity
  8
punkty
  0
INSERT
  5
77B
330
1F
100
AcDbEntity
  8
punkty
100
AcDbBlockReference
 66
     1
  2
G7PktPom
 10
8393583.554
 20
5721000.242
 30
134.71
 41
0.15
 42
0.15
 43
0.1
  0
ATTRIB
  5
77C
330
77B
100
AcDbEntity
  8
0
  6
Continuous
 62
     0
370
    -2
100
AcDbText
 10
8393583.703999998
 20
5721000.392
 30
134.71
 40
0.27
  1
8211
 41
0.8
 51
14.32394487827058
  7
G7Text
100
AcDbAttribute
  2
ID
 70
     0
280
     0
  0
ATTRIB
  5
77D
330
77B
100
AcDbEntity
  8
0
  6
Continuous
 62
     0
370
    -2
100
AcDbText
 10
8393583.703999998
 20
5720999.971999999
 30
134.71
 40
0.27
  1
134.710
 41
0.8
 51
14.32394487827058
  7
G7Text
100
AcDbAttribute
  2
H
 70
     0
280
     0
  0
SEQEND
  5
77E
330
77B
100
AcDbEntity
  8
punkty
  0
INSERT
  5
77F
330
1F
100
AcDbEntity
  8
punkty
100
AcDbBlockReference
 66
     1
  2
G7PktPom
 10
8393589.282
 20
5720991.693
 30
134.41
 41
0.15
 42
0.15
 43
0.1
  0
ATTRIB
  5
780
330
77F
100
AcDbEntity
  8
0
  6
Continuous
 62
     0
370
    -2
100
AcDbText
 10
8393589.431999998
 20
5720991.842999999
 30
134.41
 40
0.27
  1
8212
 41
0.8
 51
14.32394487827058
  7
G7Text
100
AcDbAttribute
  2
ID
 70
     0
280
     0
  0
ATTRIB
  5
781
330
77F
100
AcDbEntity
  8
0
  6
Continuous
 62
     0
370
    -2
100
AcDbText
 10
8393589.431999998
 20
5720991.423
 30
134.41
 40
0.27
  1
134.410
 41
0.8
 51
14.32394487827058
  7
G7Text
100
AcDbAttribute
  2
H
 70
     0
280
     0
  0
SEQEND
  5
782
330
77F
100
AcDbEntity
  8
punkty
  0
INSERT
  5
783
330
1F
100
AcDbEntity
  8
punkty
100
AcDbBlockReference
 66
     1
  2
G7PktPom
 10
8393589.772
 20
5720992.085
 30
134.45
 41
0.15
 42
0.15
 43
0.1
  0
ATTRIB
  5
784
330
783
100
AcDbEntity
  8
0
  6
Continuous
 62
     0
370
    -2
100
AcDbText
 10
8393589.921999998
 20
5720992.235
 30
134.45
 40
0.27
  1
8213
 41
0.8
 51
14.32394487827058
  7
G7Text
100
AcDbAttribute
  2
ID
 70
     0
280
     0
  0
ATTRIB
  5
785
330
783
100
AcDbEntity
  8
0
  6
Continuous
 62
     0
370
    -2
100
AcDbText
 10
8393589.921999998
 20
5720991.814999999
 30
134.45
 40
0.27
  1
134.450
 41
0.8
 51
14.32394487827058
  7
G7Text
100
AcDbAttribute
  2
H
 70
     0
280
     0
  0
SEQEND
  5
786
330
783
100
AcDbEntity
  8
punkty
  0
INSERT
  5
787
330
1F
100
AcDbEntity
  8
punkty
100
AcDbBlockReference
 66
     1
  2
G7PktPom
 10
8393597.174
 20
5720984.777
 30
134.02
 41
0.15
 42
0.15
 43
0.1
  0
ATTRIB
  5
788
330
787
100
AcDbEntity
  8
0
  6
Continuous
 62
     0
370
    -2
100
AcDbText
 10
8393597.324
 20
5720984.927
 30
134.02
 40
0.27
  1
8214
 41
0.8
 51
14.32394487827058
  7
G7Text
100
AcDbAttribute
  2
ID
 70
     0
280
     0
  0
ATTRIB
  5
789
330
787
100
AcDbEntity
  8
0
  6
Continuous
 62
     0
370
    -2
100
AcDbText
 10
8393597.324
 20
5720984.506999999
 30
134.02
 40
0.27
  1
134.020
 41
0.8
 51
14.32394487827058
  7
G7Text
100
AcDbAttribute
  2
H
 70
     0
280
     0
  0
SEQEND
  5
78A
330
787
100
AcDbEntity
  8
punkty
  0
INSERT
  5
78B
330
1F
100
AcDbEntity
  8
punkty
100
AcDbBlockReference
 66
     1
  2
G7PktPom
 10
8393596.926
 20
5720984.149
 30
134.04
 41
0.15
 42
0.15
 43
0.1
  0
ATTRIB
  5
78C
330
78B
100
AcDbEntity
  8
0
  6
Continuous
 62
     0
370
    -2
100
AcDbText
 10
8393597.076
 20
5720984.299
 30
134.04
 40
0.27
  1
8215
 41
0.8
 51
14.32394487827058
  7
G7Text
100
AcDbAttribute
  2
ID
 70
     0
280
     0
  0
ATTRIB
  5
78D
330
78B
100
AcDbEntity
  8
0
  6
Continuous
 62
     0
370
    -2
100
AcDbText
 10
8393597.076
 20
5720983.879000001
 30
134.04
 40
0.27
  1
134.040
 41
0.8
 51
14.32394487827058
  7
G7Text
100
AcDbAttribute
  2
H
 70
     0
280
     0
  0
SEQEND
  5
78E
330
78B
100
AcDbEntity
  8
punkty
  0
INSERT
  5
78F
330
1F
100
AcDbEntity
  8
punkty
100
AcDbBlockReference
 66
     1
  2
G7PktPom
 10
8393607.219
 20
5720977.834
 30
133.56
 41
0.15
 42
0.15
 43
0.1
  0
ATTRIB
  5
790
330
78F
100
AcDbEntity
  8
0
  6
Continuous
 62
     0
370
    -2
100
AcDbText
 10
8393607.368999999
 20
5720977.984
 30
133.56
 40
0.27
  1
8216
 41
0.8
 51
14.32394487827058
  7
G7Text
100
AcDbAttribute
  2
ID
 70
     0
280
     0
  0
ATTRIB
  5
791
330
78F
100
AcDbEntity
  8
0
  6
Continuous
 62
     0
370
    -2
100
AcDbText
 10
8393607.368999999
 20
5720977.564
 30
133.56
 40
0.27
  1
133.560
 41
0.8
 51
14.32394487827058
  7
G7Text
100
AcDbAttribute
  2
H
 70
     0
280
     0
  0
SEQEND
  5
792
330
78F
100
AcDbEntity
  8
punkty
  0
INSERT
  5
793
330
1F
100
AcDbEntity
  8
punkty
100
AcDbBlockReference
 66
     1
  2
G7PktPom
 10
8393609.102
 20
5720977.996
 30
133.68
 41
0.15
 42
0.15
 43
0.1
  0
ATTRIB
  5
794
330
793
100
AcDbEntity
  8
0
  6
Continuous
 62
     0
370
    -2
100
AcDbText
 10
8393609.251999998
 20
5720978.146000001
 30
133.68
 40
0.27
  1
8217
 41
0.8
 51
14.32394487827058
  7
G7Text
100
AcDbAttribute
  2
ID
 70
     0
280
     0
  0
ATTRIB
  5
795
330
793
100
AcDbEntity
  8
0
  6
Continuous
 62
     0
370
    -2
100
AcDbText
 10
8393609.251999998
 20
5720977.726
 30
133.68
 40
0.27
  1
133.680
 41
0.8
 51
14.32394487827058
  7
G7Text
100
AcDbAttribute
  2
H
 70
     0
280
     0
  0
SEQEND
  5
796
330
793
100
AcDbEntity
  8
punkty
  0
INSERT
  5
797
330
1F
100
AcDbEntity
  8
punkty
100
AcDbBlockReference
 66
     1
  2
G7PktPom
 10
8393609.606
 20
5720976.735
 30
133.69
 41
0.15
 42
0.15
 43
0.1
  0
ATTRIB
  5
798
330
797
100
AcDbEntity
  8
0
  6
Continuous
 62
     0
370
    -2
100
AcDbText
 10
8393609.756
 20
5720976.885000001
 30
133.69
 40
0.27
  1
8218
 41
0.8
 51
14.32394487827058
  7
G7Text
100
AcDbAttribute
  2
ID
 70
     0
280
     0
  0
ATTRIB
  5
799
330
797
100
AcDbEntity
  8
0
  6
Continuous
 62
     0
370
    -2
100
AcDbText
 10
8393609.756
 20
5720976.465
 30
133.69
 40
0.27
  1
133.690
 41
0.8
 51
14.32394487827058
  7
G7Text
100
AcDbAttribute
  2
H
 70
     0
280
     0
  0
SEQEND
  5
79A
330
797
100
AcDbEntity
  8
punkty
  0
INSERT
  5
79B
330
1F
100
AcDbEntity
  8
punkty
100
AcDbBlockReference
 66
     1
  2
G7PktPom
 10
8393610.828
 20
5720967.832
 30
133.74
 41
0.15
 42
0.15
 43
0.1
  0
ATTRIB
  5
79C
330
79B
100
AcDbEntity
  8
0
  6
Continuous
 62
     0
370
    -2
100
AcDbText
 10
8393610.977999998
 20
5720967.982
 30
133.74
 40
0.27
  1
8221
 41
0.8
 51
14.32394487827058
  7
G7Text
100
AcDbAttribute
  2
ID
 70
     0
280
     0
  0
ATTRIB
  5
79D
330
79B
100
AcDbEntity
  8
0
  6
Continuous
 62
     0
370
    -2
100
AcDbText
 10
8393610.977999998
 20
5720967.562000001
 30
133.74
 40
0.27
  1
133.740
 41
0.8
 51
14.32394487827058
  7
G7Text
100
AcDbAttribute
  2
H
 70
     0
280
     0
  0
SEQEND
  5
79E
330
79B
100
AcDbEntity
  8
punkty
  0
INSERT
  5
79F
330
1F
100
AcDbEntity
  8
punkty
100
AcDbBlockReference
 66
     1
  2
G7PktPom
 10
8393610.257
 20
5720960.237
 30
133.54
 41
0.15
 42
0.15
 43
0.1
  0
ATTRIB
  5
7A0
330
79F
100
AcDbEntity
  8
0
  6
Continuous
 62
     0
370
    -2
100
AcDbText
 10
8393610.406999998
 20
5720960.386999999
 30
133.54
 40
0.27
  1
8225
 41
0.8
 51
14.32394487827058
  7
G7Text
100
AcDbAttribute
  2
ID
 70
     0
280
     0
  0
ATTRIB
  5
7A1
330
79F
100
AcDbEntity
  8
0
  6
Continuous
 62
     0
370
    -2
100
AcDbText
 10
8393610.406999998
 20
5720959.967
 30
133.54
 40
0.27
  1
133.540
 41
0.8
 51
14.32394487827058
  7
G7Text
100
AcDbAttribute
  2
H
 70
     0
280
     0
  0
SEQEND
  5
7A2
330
79F
100
AcDbEntity
  8
punkty
  0
INSERT
  5
7A3
330
1F
100
AcDbEntity
  8
punkty
100
AcDbBlockReference
 66
     1
  2
G7PktPom
 10
8393611.85
 20
5720970.559
 30
133.63
 41
0.15
 42
0.15
 43
0.1
  0
ATTRIB
  5
7A4
330
7A3
100
AcDbEntity
  8
0
  6
Continuous
 62
     0
370
    -2
100
AcDbText
 10
8393611.999999998
 20
5720970.709
 30
133.63
 40
0.27
  1
8226
 41
0.8
 51
14.32394487827058
  7
G7Text
100
AcDbAttribute
  2
ID
 70
     0
280
     0
  0
ATTRIB
  5
7A5
330
7A3
100
AcDbEntity
  8
0
  6
Continuous
 62
     0
370
    -2
100
AcDbText
 10
8393611.999999998
 20
5720970.289000001
 30
133.63
 40
0.27
  1
133.630
 41
0.8
 51
14.32394487827058
  7
G7Text
100
AcDbAttribute
  2
H
 70
     0
280
     0
  0
SEQEND
  5
7A6
330
7A3
100
AcDbEntity
  8
punkty
  0
INSERT
  5
7A7
330
1F
100
AcDbEntity
  8
punkty
100
AcDbBlockReference
 66
     1
  2
G7PktPom
 10
8393612.409
 20
5720974.537
 30
133.61
 41
0.15
 42
0.15
 43
0.1
  0
ATTRIB
  5
7A8
330
7A7
100
AcDbEntity
  8
0
  6
Continuous
 62
     0
370
    -2
100
AcDbText
 10
8393612.558999998
 20
5720974.687
 30
133.61
 40
0.27
  1
8227
 41
0.8
 51
14.32394487827058
  7
G7Text
100
AcDbAttribute
  2
ID
 70
     0
280
     0
  0
ATTRIB
  5
7A9
330
7A7
100
AcDbEntity
  8
0
  6
Continuous
 62
     0
370
    -2
100
AcDbText
 10
8393612.558999998
 20
5720974.266999999
 30
133.61
 40
0.27
  1
133.610
 41
0.8
 51
14.32394487827058
  7
G7Text
100
AcDbAttribute
  2
H
 70
     0
280
     0
  0
SEQEND
  5
7AA
330
7A7
100
AcDbEntity
  8
punkty
  0
INSERT
  5
7AB
330
1F
100
AcDbEntity
  8
punkty
100
AcDbBlockReference
 66
     1
  2
G7PktPom
 10
8393618.354
 20
5720976.364
 30
133.45
 41
0.15
 42
0.15
 43
0.1
  0
ATTRIB
  5
7AC
330
7AB
100
AcDbEntity
  8
0
  6
Continuous
 62
     0
370
    -2
100
AcDbText
 10
8393618.503999999
 20
5720976.514
 30
133.45
 40
0.27
  1
8231
 41
0.8
 51
14.32394487827058
  7
G7Text
100
AcDbAttribute
  2
ID
 70
     0
280
     0
  0
ATTRIB
  5
7AD
330
7AB
100
AcDbEntity
  8
0
  6
Continuous
 62
     0
370
    -2
100
AcDbText
 10
8393618.503999999
 20
5720976.094000001
 30
133.45
 40
0.27
  1
133.450
 41
0.8
 51
14.32394487827058
  7
G7Text
100
AcDbAttribute
  2
H
 70
     0
280
     0
  0
SEQEND
  5
7AE
330
7AB
100
AcDbEntity
  8
punkty
  0
INSERT
  5
7AF
330
1F
100
AcDbEntity
  8
punkty
100
AcDbBlockReference
 66
     1
  2
G7PktPom
 10
8393618.415
 20
5720976.15
 30
133.49
 41
0.15
 42
0.15
 43
0.1
  0
ATTRIB
  5
7B0
330
7AF
100
AcDbEntity
  8
0
  6
Continuous
 62
     0
370
    -2
100
AcDbText
 10
8393618.564999998
 20
5720976.3
 30
133.49
 40
0.27
  1
8232
 41
0.8
 51
14.32394487827058
  7
G7Text
100
AcDbAttribute
  2
ID
 70
     0
280
     0
  0
ATTRIB
  5
7B1
330
7AF
100
AcDbEntity
  8
0
  6
Continuous
 62
     0
370
    -2
100
AcDbText
 10
8393618.564999998
 20
5720975.880000001
 30
133.49
 40
0.27
  1
133.490
 41
0.8
 51
14.32394487827058
  7
G7Text
100
AcDbAttribute
  2
H
 70
     0
280
     0
  0
SEQEND
  5
7B2
330
7AF
100
AcDbEntity
  8
punkty
  0
INSERT
  5
7B3
330
1F
100
AcDbEntity
  8
punkty
100
AcDbBlockReference
 66
     1
  2
G7PktPom
 10
8393626.765
 20
5720977.306
 30
133.66
 41
0.15
 42
0.15
 43
0.1
  0
ATTRIB
  5
7B4
330
7B3
100
AcDbEntity
  8
0
  6
Continuous
 62
     0
370
    -2
100
AcDbText
 10
8393626.915
 20
5720977.455999999
 30
133.66
 40
0.27
  1
8233
 41
0.8
 51
14.32394487827058
  7
G7Text
100
AcDbAttribute
  2
ID
 70
     0
280
     0
  0
ATTRIB
  5
7B5
330
7B3
100
AcDbEntity
  8
0
  6
Continuous
 62
     0
370
    -2
100
AcDbText
 10
8393626.915
 20
5720977.036
 30
133.66
 40
0.27
  1
133.660
 41
0.8
 51
14.32394487827058
  7
G7Text
100
AcDbAttribute
  2
H
 70
     0
280
     0
  0
SEQEND
  5
7B6
330
7B3
100
AcDbEntity
  8
punkty
  0
INSERT
  5
7B7
330
1F
100
AcDbEntity
  8
punkty
100
AcDbBlockReference
 66
     1
  2
G7PktPom
 10
8393626.619
 20
5720977.717
 30
133.65
 41
0.15
 42
0.15
 43
0.1
  0
ATTRIB
  5
7B8
330
7B7
100
AcDbEntity
  8
0
  6
Continuous
 62
     0
370
    -2
100
AcDbText
 10
8393626.769
 20
5720977.867
 30
133.65
 40
0.27
  1
8234
 41
0.8
 51
14.32394487827058
  7
G7Text
100
AcDbAttribute
  2
ID
 70
     0
280
     0
  0
ATTRIB
  5
7B9
330
7B7
100
AcDbEntity
  8
0
  6
Continuous
 62
     0
370
    -2
100
AcDbText
 10
8393626.769
 20
5720977.447000001
 30
133.65
 40
0.27
  1
133.650
 41
0.8
 51
14.32394487827058
  7
G7Text
100
AcDbAttribute
  2
H
 70
     0
280
     0
  0
SEQEND
  5
7BA
330
7B7
100
AcDbEntity
  8
punkty
  0
INSERT
  5
7BB
330
1F
100
AcDbEntity
  8
punkty
100
AcDbBlockReference
 66
     1
  2
G7PktPom
 10
8393632.913
 20
5720979.936
 30
133.99
 41
0.15
 42
0.15
 43
0.1
  0
ATTRIB
  5
7BC
330
7BB
100
AcDbEntity
  8
0
  6
Continuous
 62
     0
370
    -2
100
AcDbText
 10
8393633.063
 20
5720980.086
 30
133.99
 40
0.27
  1
8235
 41
0.8
 51
14.32394487827058
  7
G7Text
100
AcDbAttribute
  2
ID
 70
     0
280
     0
  0
ATTRIB
  5
7BD
330
7BB
100
AcDbEntity
  8
0
  6
Continuous
 62
     0
370
    -2
100
AcDbText
 10
8393633.063
 20
5720979.665999999
 30
133.99
 40
0.27
  1
133.990
 41
0.8
 51
14.32394487827058
  7
G7Text
100
AcDbAttribute
  2
H
 70
     0
280
     0
  0
SEQEND
  5
7BE
330
7BB
100
AcDbEntity
  8
punkty
  0
INSERT
  5
7BF
330
1F
100
AcDbEntity
  8
punkty
100
AcDbBlockReference
 66
     1
  2
G7PktPom
 10
8393613.559
 20
5720979.301
 30
134.97
 41
0.15
 42
0.15
 43
0.1
  0
ATTRIB
  5
7C0
330
7BF
100
AcDbEntity
  8
0
  6
Continuous
 62
     0
370
    -2
100
AcDbText
 10
8393613.708999999
 20
5720979.451
 30
134.97
 40
0.27
  1
8239
 41
0.8
 51
14.32394487827058
  7
G7Text
100
AcDbAttribute
  2
ID
 70
     0
280
     0
  0
ATTRIB
  5
7C1
330
7BF
100
AcDbEntity
  8
0
  6
Continuous
 62
     0
370
    -2
100
AcDbText
 10
8393613.708999999
 20
5720979.030999999
 30
134.97
 40
0.27
  1
134.970
 41
0.8
 51
14.32394487827058
  7
G7Text
100
AcDbAttribute
  2
H
 70
     0
280
     0
  0
SEQEND
  5
7C2
330
7BF
100
AcDbEntity
  8
punkty
  0
INSERT
  5
7C3
330
1F
100
AcDbEntity
  8
punkty
100
AcDbBlockReference
 66
     1
  2
G7PktPom
 10
8393602.264
 20
5720984.113
 30
135.13
 41
0.15
 42
0.15
 43
0.1
  0
ATTRIB
  5
7C4
330
7C3
100
AcDbEntity
  8
0
  6
Continuous
 62
     0
370
    -2
100
AcDbText
 10
8393602.413999999
 20
5720984.262999999
 30
135.13
 40
0.27
  1
8240
 41
0.8
 51
14.32394487827058
  7
G7Text
100
AcDbAttribute
  2
ID
 70
     0
280
     0
  0
ATTRIB
  5
7C5
330
7C3
100
AcDbEntity
  8
0
  6
Continuous
 62
     0
370
    -2
100
AcDbText
 10
8393602.413999999
 20
5720983.843
 30
135.13
 40
0.27
  1
135.130
 41
0.8
 51
14.32394487827058
  7
G7Text
100
AcDbAttribute
  2
H
 70
     0
280
     0
  0
SEQEND
  5
7C6
330
7C3
100
AcDbEntity
  8
punkty
  0
INSERT
  5
7C7
330
1F
100
AcDbEntity
  8
punkty
100
AcDbBlockReference
 66
     1
  2
G7PktPom
 10
8393592.883
 20
5720990.998
 30
135.28
 41
0.15
 42
0.15
 43
0.1
  0
ATTRIB
  5
7C8
330
7C7
100
AcDbEntity
  8
0
  6
Continuous
 62
     0
370
    -2
100
AcDbText
 10
8393593.032999998
 20
5720991.147999999
 30
135.28
 40
0.27
  1
8241
 41
0.8
 51
14.32394487827058
  7
G7Text
100
AcDbAttribute
  2
ID
 70
     0
280
     0
  0
ATTRIB
  5
7C9
330
7C7
100
AcDbEntity
  8
0
  6
Continuous
 62
     0
370
    -2
100
AcDbText
 10
8393593.032999998
 20
5720990.728
 30
135.28
 40
0.27
  1
135.280
 41
0.8
 51
14.32394487827058
  7
G7Text
100
AcDbAttribute
  2
H
 70
     0
280
     0
  0
SEQEND
  5
7CA
330
7C7
100
AcDbEntity
  8
punkty
  0
INSERT
  5
7CB
330
1F
100
AcDbEntity
  8
punkty
100
AcDbBlockReference
 66
     1
  2
G7PktPom
 10
8393586.524
 20
5720999.189
 30
135.31
 41
0.15
 42
0.15
 43
0.1
  0
ATTRIB
  5
7CC
330
7CB
100
AcDbEntity
  8
0
  6
Continuous
 62
     0
370
    -2
100
AcDbText
 10
8393586.673999999
 20
5720999.339000001
 30
135.31
 40
0.27
  1
8242
 41
0.8
 51
14.32394487827058
  7
G7Text
100
AcDbAttribute
  2
ID
 70
     0
280
     0
  0
ATTRIB
  5
7CD
330
7CB
100
AcDbEntity
  8
0
  6
Continuous
 62
     0
370
    -2
100
AcDbText
 10
8393586.673999999
 20
5720998.919
 30
135.31
 40
0.27
  1
135.310
 41
0.8
 51
14.32394487827058
  7
G7Text
100
AcDbAttribute
  2
H
 70
     0
280
     0
  0
SEQEND
  5
7CE
330
7CB
100
AcDbEntity
  8
punkty
  0
INSERT
  5
7CF
330
1F
100
AcDbEntity
  8
punkty
100
AcDbBlockReference
 66
     1
  2
G7PktPom
 10
8393588.029
 20
5720991.918
 30
135.05
 41
0.15
 42
0.15
 43
0.1
  0
ATTRIB
  5
7D0
330
7CF
100
AcDbEntity
  8
0
  6
Continuous
 62
     0
370
    -2
100
AcDbText
 10
8393588.178999998
 20
5720992.067999999
 30
135.05
 40
0.27
  1
8256
 41
0.8
 51
14.32394487827058
  7
G7Text
100
AcDbAttribute
  2
ID
 70
     0
280
     0
  0
ATTRIB
  5
7D1
330
7CF
100
AcDbEntity
  8
0
  6
Continuous
 62
     0
370
    -2
100
AcDbText
 10
8393588.178999998
 20
5720991.648
 30
135.05
 40
0.27
  1
135.050
 41
0.8
 51
14.32394487827058
  7
G7Text
100
AcDbAttribute
  2
H
 70
     0
280
     0
  0
SEQEND
  5
7D2
330
7CF
100
AcDbEntity
  8
punkty
  0
INSERT
  5
7D3
330
1F
100
AcDbEntity
  8
punkty
100
AcDbBlockReference
 66
     1
  2
G7PktPom
 10
8393592.2
 20
5720986.589
 30
134.85
 41
0.15
 42
0.15
 43
0.1
  0
ATTRIB
  5
7D4
330
7D3
100
AcDbEntity
  8
0
  6
Continuous
 62
     0
370
    -2
100
AcDbText
 10
8393592.349999998
 20
5720986.738999999
 30
134.85
 40
0.27
  1
8257
 41
0.8
 51
14.32394487827058
  7
G7Text
100
AcDbAttribute
  2
ID
 70
     0
280
     0
  0
ATTRIB
  5
7D5
330
7D3
100
AcDbEntity
  8
0
  6
Continuous
 62
     0
370
    -2
100
AcDbText
 10
8393592.349999998
 20
5720986.319
 30
134.85
 40
0.27
  1
134.850
 41
0.8
 51
14.32394487827058
  7
G7Text
100
AcDbAttribute
  2
H
 70
     0
280
     0
  0
SEQEND
  5
7D6
330
7D3
100
AcDbEntity
  8
punkty
  0
INSERT
  5
7D7
330
1F
100
AcDbEntity
  8
punkty
100
AcDbBlockReference
 66
     1
  2
G7PktPom
 10
8393599.313
 20
5720980.354
 30
134.89
 41
0.15
 42
0.15
 43
0.1
  0
ATTRIB
  5
7D8
330
7D7
100
AcDbEntity
  8
0
  6
Continuous
 62
     0
370
    -2
100
AcDbText
 10
8393599.462999998
 20
5720980.504
 30
134.89
 40
0.27
  1
8258
 41
0.8
 51
14.32394487827058
  7
G7Text
100
AcDbAttribute
  2
ID
 70
     0
280
     0
  0
ATTRIB
  5
7D9
330
7D7
100
AcDbEntity
  8
0
  6
Continuous
 62
     0
370
    -2
100
AcDbText
 10
8393599.462999998
 20
5720980.084000001
 30
134.89
 40
0.27
  1
134.890
 41
0.8
 51
14.32394487827058
  7
G7Text
100
AcDbAttribute
  2
H
 70
     0
280
     0
  0
SEQEND
  5
7DA
330
7D7
100
AcDbEntity
  8
punkty
  0
INSERT
  5
7DB
330
1F
100
AcDbEntity
  8
punkty
100
AcDbBlockReference
 66
     1
  2
G7PktPom
 10
8393607.316
 20
5720975.674
 30
135.21
 41
0.15
 42
0.15
 43
0.1
  0
ATTRIB
  5
7DC
330
7DB
100
AcDbEntity
  8
0
  6
Continuous
 62
     0
370
    -2
100
AcDbText
 10
8393607.465999998
 20
5720975.824
 30
135.21
 40
0.27
  1
8259
 41
0.8
 51
14.32394487827058
  7
G7Text
100
AcDbAttribute
  2
ID
 70
     0
280
     0
  0
ATTRIB
  5
7DD
330
7DB
100
AcDbEntity
  8
0
  6
Continuous
 62
     0
370
    -2
100
AcDbText
 10
8393607.465999998
 20
5720975.404
 30
135.21
 40
0.27
  1
135.210
 41
0.8
 51
14.32394487827058
  7
G7Text
100
AcDbAttribute
  2
H
 70
     0
280
     0
  0
SEQEND
  5
7DE
330
7DB
100
AcDbEntity
  8
punkty
  0
INSERT
  5
7DF
330
1F
100
AcDbEntity
  8
punkty
100
AcDbBlockReference
 66
     1
  2
G7PktPom
 10
8393609.88
 20
5720973.89
 30
135.19
 41
0.15
 42
0.15
 43
0.1
  0
ATTRIB
  5
7E0
330
7DF
100
AcDbEntity
  8
0
  6
Continuous
 62
     0
370
    -2
100
AcDbText
 10
8393610.03
 20
5720974.04
 30
135.19
 40
0.27
  1
8261
 41
0.8
 51
14.32394487827058
  7
G7Text
100
AcDbAttribute
  2
ID
 70
     0
280
     0
  0
ATTRIB
  5
7E1
330
7DF
100
AcDbEntity
  8
0
  6
Continuous
 62
     0
370
    -2
100
AcDbText
 10
8393610.03
 20
5720973.619999999
 30
135.19
 40
0.27
  1
135.190
 41
0.8
 51
14.32394487827058
  7
G7Text
100
AcDbAttribute
  2
H
 70
     0
280
     0
  0
SEQEND
  5
7E2
330
7DF
100
AcDbEntity
  8
punkty
  0
INSERT
  5
7E3
330
1F
100
AcDbEntity
  8
punkty
100
AcDbBlockReference
 66
     1
  2
G7PktPom
 10
8393609.776
 20
5720972.875
 30
135.18
 41
0.15
 42
0.15
 43
0.1
  0
ATTRIB
  5
7E4
330
7E3
100
AcDbEntity
  8
0
  6
Continuous
 62
     0
370
    -2
100
AcDbText
 10
8393609.925999999
 20
5720973.024999999
 30
135.18
 40
0.27
  1
8262
 41
0.8
 51
14.32394487827058
  7
G7Text
100
AcDbAttribute
  2
ID
 70
     0
280
     0
  0
ATTRIB
  5
7E5
330
7E3
100
AcDbEntity
  8
0
  6
Continuous
 62
     0
370
    -2
100
AcDbText
 10
8393609.925999999
 20
5720972.605
 30
135.18
 40
0.27
  1
135.180
 41
0.8
 51
14.32394487827058
  7
G7Text
100
AcDbAttribute
  2
H
 70
     0
280
     0
  0
SEQEND
  5
7E6
330
7E3
100
AcDbEntity
  8
punkty
  0
INSERT
  5
7E7
330
1F
100
AcDbEntity
  8
punkty
100
AcDbBlockReference
 66
     1
  2
G7PktPom
 10
8393607.581
 20
5720963.691
 30
135.2
 41
0.15
 42
0.15
 43
0.1
  0
ATTRIB
  5
7E8
330
7E7
100
AcDbEntity
  8
0
  6
Continuous
 62
     0
370
    -2
100
AcDbText
 10
8393607.730999999
 20
5720963.840999999
 30
135.2
 40
0.27
  1
8263
 41
0.8
 51
14.32394487827058
  7
G7Text
100
AcDbAttribute
  2
ID
 70
     0
280
     0
  0
ATTRIB
  5
7E9
330
7E7
100
AcDbEntity
  8
0
  6
Continuous
 62
     0
370
    -2
100
AcDbText
 10
8393607.730999999
 20
5720963.421
 30
135.2
 40
0.27
  1
135.200
 41
0.8
 51
14.32394487827058
  7
G7Text
100
AcDbAttribute
  2
H
 70
     0
280
     0
  0
SEQEND
  5
7EA
330
7E7
100
AcDbEntity
  8
punkty
  0
INSERT
  5
7EB
330
1F
100
AcDbEntity
  8
punkty
100
AcDbBlockReference
 66
     1
  2
G7PktPom
 10
8393612.196
 20
5720959.067
 30
134.98
 41
0.15
 42
0.15
 43
0.1
  0
ATTRIB
  5
7EC
330
7EB
100
AcDbEntity
  8
0
  6
Continuous
 62
     0
370
    -2
100
AcDbText
 10
8393612.345999999
 20
5720959.216999999
 30
134.98
 40
0.27
  1
8268
 41
0.8
 51
14.32394487827058
  7
G7Text
100
AcDbAttribute
  2
ID
 70
     0
280
     0
  0
ATTRIB
  5
7ED
330
7EB
100
AcDbEntity
  8
0
  6
Continuous
 62
     0
370
    -2
100
AcDbText
 10
8393612.345999999
 20
5720958.797
 30
134.98
 40
0.27
  1
134.980
 41
0.8
 51
14.32394487827058
  7
G7Text
100
AcDbAttribute
  2
H
 70
     0
280
     0
  0
SEQEND
  5
7EE
330
7EB
100
AcDbEntity
  8
punkty
  0
INSERT
  5
7EF
330
1F
100
AcDbEntity
  8
punkty
100
AcDbBlockReference
 66
     1
  2
G7PktPom
 10
8393614.137
 20
5720970.98
 30
135.17
 41
0.15
 42
0.15
 43
0.1
  0
ATTRIB
  5
7F0
330
7EF
100
AcDbEntity
  8
0
  6
Continuous
 62
     0
370
    -2
100
AcDbText
 10
8393614.286999999
 20
5720971.13
 30
135.17
 40
0.27
  1
8269
 41
0.8
 51
14.32394487827058
  7
G7Text
100
AcDbAttribute
  2
ID
 70
     0
280
     0
  0
ATTRIB
  5
7F1
330
7EF
100
AcDbEntity
  8
0
  6
Continuous
 62
     0
370
    -2
100
AcDbText
 10
8393614.286999999
 20
5720970.710000001
 30
135.17
 40
0.27
  1
135.170
 41
0.8
 51
14.32394487827058
  7
G7Text
100
AcDbAttribute
  2
H
 70
     0
280
     0
  0
SEQEND
  5
7F2
330
7EF
100
AcDbEntity
  8
punkty
  0
INSERT
  5
7F3
330
1F
100
AcDbEntity
  8
punkty
100
AcDbBlockReference
 66
     1
  2
G7PktPom
 10
8393614.567
 20
5720973.431
 30
135.24
 41
0.15
 42
0.15
 43
0.1
  0
ATTRIB
  5
7F4
330
7F3
100
AcDbEntity
  8
0
  6
Continuous
 62
     0
370
    -2
100
AcDbText
 10
8393614.716999998
 20
5720973.580999999
 30
135.24
 40
0.27
  1
8270
 41
0.8
 51
14.32394487827058
  7
G7Text
100
AcDbAttribute
  2
ID
 70
     0
280
     0
  0
ATTRIB
  5
7F5
330
7F3
100
AcDbEntity
  8
0
  6
Continuous
 62
     0
370
    -2
100
AcDbText
 10
8393614.716999998
 20
5720973.161
 30
135.24
 40
0.27
  1
135.240
 41
0.8
 51
14.32394487827058
  7
G7Text
100
AcDbAttribute
  2
H
 70
     0
280
     0
  0
SEQEND
  5
7F6
330
7F3
100
AcDbEntity
  8
punkty
  0
INSERT
  5
7F7
330
1F
100
AcDbEntity
  8
punkty
100
AcDbBlockReference
 66
     1
  2
G7PktPom
 10
8393615.796
 20
5720973.828
 30
135.23
 41
0.15
 42
0.15
 43
0.1
  0
ATTRIB
  5
7F8
330
7F7
100
AcDbEntity
  8
0
  6
Continuous
 62
     0
370
    -2
100
AcDbText
 10
8393615.945999999
 20
5720973.977999999
 30
135.23
 40
0.27
  1
8272
 41
0.8
 51
14.32394487827058
  7
G7Text
100
AcDbAttribute
  2
ID
 70
     0
280
     0
  0
ATTRIB
  5
7F9
330
7F7
100
AcDbEntity
  8
0
  6
Continuous
 62
     0
370
    -2
100
AcDbText
 10
8393615.945999999
 20
5720973.558
 30
135.23
 40
0.27
  1
135.230
 41
0.8
 51
14.32394487827058
  7
G7Text
100
AcDbAttribute
  2
H
 70
     0
280
     0
  0
SEQEND
  5
7FA
330
7F7
100
AcDbEntity
  8
punkty
  0
INSERT
  5
7FB
330
1F
100
AcDbEntity
  8
punkty
100
AcDbBlockReference
 66
     1
  2
G7PktPom
 10
8393626.06
 20
5720974.749
 30
135.13
 41
0.15
 42
0.15
 43
0.1
  0
ATTRIB
  5
7FC
330
7FB
100
AcDbEntity
  8
0
  6
Continuous
 62
     0
370
    -2
100
AcDbText
 10
8393626.209999999
 20
5720974.898999999
 30
135.13
 40
0.27
  1
8273
 41
0.8
 51
14.32394487827058
  7
G7Text
100
AcDbAttribute
  2
ID
 70
     0
280
     0
  0
ATTRIB
  5
7FD
330
7FB
100
AcDbEntity
  8
0
  6
Continuous
 62
     0
370
    -2
100
AcDbText
 10
8393626.209999999
 20
5720974.479
 30
135.13
 40
0.27
  1
135.130
 41
0.8
 51
14.32394487827058
  7
G7Text
100
AcDbAttribute
  2
H
 70
     0
280
     0
  0
SEQEND
  5
7FE
330
7FB
100
AcDbEntity
  8
punkty
  0
INSERT
  5
7FF
330
1F
100
AcDbEntity
  8
punkty
100
AcDbBlockReference
 66
     1
  2
G7PktPom
 10
8393633.663
 20
5720977.866
 30
135.23
 41
0.15
 42
0.15
 43
0.1
  0
ATTRIB
  5
800
330
7FF
100
AcDbEntity
  8
0
  6
Continuous
 62
     0
370
    -2
100
AcDbText
 10
8393633.813
 20
5720978.016
 30
135.23
 40
0.27
  1
8274
 41
0.8
 51
14.32394487827058
  7
G7Text
100
AcDbAttribute
  2
ID
 70
     0
280
     0
  0
ATTRIB
  5
801
330
7FF
100
AcDbEntity
  8
0
  6
Continuous
 62
     0
370
    -2
100
AcDbText
 10
8393633.813
 20
5720977.596000001
 30
135.23
 40
0.27
  1
135.230
 41
0.8
 51
14.32394487827058
  7
G7Text
100
AcDbAttribute
  2
H
 70
     0
280
     0
  0
SEQEND
  5
802
330
7FF
100
AcDbEntity
  8
punkty
  0
INSERT
  5
803
330
1F
100
AcDbEntity
  8
punkty
100
AcDbBlockReference
 66
     1
  2
G7PktPom
 10
8393638.966
 20
5720976.181
 30
135.13
 41
0.15
 42
0.15
 43
0.1
  0
ATTRIB
  5
804
330
803
100
AcDbEntity
  8
0
  6
Continuous
 62
     0
370
    -2
100
AcDbText
 10
8393639.115999999
 20
5720976.330999999
 30
135.13
 40
0.27
  1
8275
 41
0.8
 51
14.32394487827058
  7
G7Text
100
AcDbAttribute
  2
ID
 70
     0
280
     0
  0
ATTRIB
  5
805
330
803
100
AcDbEntity
  8
0
  6
Continuous
 62
     0
370
    -2
100
AcDbText
 10
8393639.115999999
 20
5720975.911
 30
135.13
 40
0.27
  1
135.130
 41
0.8
 51
14.32394487827058
  7
G7Text
100
AcDbAttribute
  2
H
 70
     0
280
     0
  0
SEQEND
  5
806
330
803
100
AcDbEntity
  8
punkty
  0
INSERT
  5
807
330
1F
100
AcDbEntity
  8
punkty
100
AcDbBlockReference
 66
     1
  2
G7PktPom
 10
8393640.18
 20
5720962.959
 30
135.33
 41
0.15
 42
0.15
 43
0.1
  0
ATTRIB
  5
808
330
807
100
AcDbEntity
  8
0
  6
Continuous
 62
     0
370
    -2
100
AcDbText
 10
8393640.329999998
 20
5720963.109
 30
135.33
 40
0.27
  1
8276
 41
0.8
 51
14.32394487827058
  7
G7Text
100
AcDbAttribute
  2
ID
 70
     0
280
     0
  0
ATTRIB
  5
809
330
807
100
AcDbEntity
  8
0
  6
Continuous
 62
     0
370
    -2
100
AcDbText
 10
8393640.329999998
 20
5720962.688999999
 30
135.33
 40
0.27
  1
135.330
 41
0.8
 51
14.32394487827058
  7
G7Text
100
AcDbAttribute
  2
H
 70
     0
280
     0
  0
SEQEND
  5
80A
330
807
100
AcDbEntity
  8
punkty
  0
INSERT
  5
80B
330
1F
100
AcDbEntity
  8
punkty
100
AcDbBlockReference
 66
     1
  2
G7PktPom
 10
8393643.094
 20
5720949.467
 30
135.18
 41
0.15
 42
0.15
 43
0.1
  0
ATTRIB
  5
80C
330
80B
100
AcDbEntity
  8
0
  6
Continuous
 62
     0
370
    -2
100
AcDbText
 10
8393643.243999999
 20
5720949.617
 30
135.18
 40
0.27
  1
8277
 41
0.8
 51
14.32394487827058
  7
G7Text
100
AcDbAttribute
  2
ID
 70
     0
280
     0
  0
ATTRIB
  5
80D
330
80B
100
AcDbEntity
  8
0
  6
Continuous
 62
     0
370
    -2
100
AcDbText
 10
8393643.243999999
 20
5720949.197000001
 30
135.18
 40
0.27
  1
135.180
 41
0.8
 51
14.32394487827058
  7
G7Text
100
AcDbAttribute
  2
H
 70
     0
280
     0
  0
SEQEND
  5
80E
330
80B
100
AcDbEntity
  8
punkty
  0
INSERT
  5
80F
330
1F
100
AcDbEntity
  8
punkty
100
AcDbBlockReference
 66
     1
  2
G7PktPom
 10
8393633.285
 20
5720948.231
 30
135.13
 41
0.15
 42
0.15
 43
0.1
  0
ATTRIB
  5
810
330
80F
100
AcDbEntity
  8
0
  6
Continuous
 62
     0
370
    -2
100
AcDbText
 10
8393633.434999999
 20
5720948.381
 30
135.13
 40
0.27
  1
8278
 41
0.8
 51
14.32394487827058
  7
G7Text
100
AcDbAttribute
  2
ID
 70
     0
280
     0
  0
ATTRIB
  5
811
330
80F
100
AcDbEntity
  8
0
  6
Continuous
 62
     0
370
    -2
100
AcDbText
 10
8393633.434999999
 20
5720947.960999999
 30
135.13
 40
0.27
  1
135.130
 41
0.8
 51
14.32394487827058
  7
G7Text
100
AcDbAttribute
  2
H
 70
     0
280
     0
  0
SEQEND
  5
812
330
80F
100
AcDbEntity
  8
punkty
  0
INSERT
  5
813
330
1F
100
AcDbEntity
  8
punkty
100
AcDbBlockReference
 66
     1
  2
G7PktPom
 10
8393629.017
 20
5720959.554
 30
135.2
 41
0.15
 42
0.15
 43
0.1
  0
ATTRIB
  5
814
330
813
100
AcDbEntity
  8
0
  6
Continuous
 62
     0
370
    -2
100
AcDbText
 10
8393629.167
 20
5720959.703999999
 30
135.2
 40
0.27
  1
8279
 41
0.8
 51
14.32394487827058
  7
G7Text
100
AcDbAttribute
  2
ID
 70
     0
280
     0
  0
ATTRIB
  5
815
330
813
100
AcDbEntity
  8
0
  6
Continuous
 62
     0
370
    -2
100
AcDbText
 10
8393629.167
 20
5720959.284
 30
135.2
 40
0.27
  1
135.200
 41
0.8
 51
14.32394487827058
  7
G7Text
100
AcDbAttribute
  2
H
 70
     0
280
     0
  0
SEQEND
  5
816
330
813
100
AcDbEntity
  8
punkty
  0
INSERT
  5
817
330
1F
100
AcDbEntity
  8
punkty
100
AcDbBlockReference
 66
     1
  2
G7PktPom
 10
8393619.671
 20
5720956.397
 30
135.07
 41
0.15
 42
0.15
 43
0.1
  0
ATTRIB
  5
818
330
817
100
AcDbEntity
  8
0
  6
Continuous
 62
     0
370
    -2
100
AcDbText
 10
8393619.820999999
 20
5720956.546999999
 30
135.07
 40
0.27
  1
8280
 41
0.8
 51
14.32394487827058
  7
G7Text
100
AcDbAttribute
  2
ID
 70
     0
280
     0
  0
ATTRIB
  5
819
330
817
100
AcDbEntity
  8
0
  6
Continuous
 62
     0
370
    -2
100
AcDbText
 10
8393619.820999999
 20
5720956.127
 30
135.07
 40
0.27
  1
135.070
 41
0.8
 51
14.32394487827058
  7
G7Text
100
AcDbAttribute
  2
H
 70
     0
280
     0
  0
SEQEND
  5
81A
330
817
100
AcDbEntity
  8
punkty
  0
INSERT
  5
81B
330
1F
100
AcDbEntity
  8
punkty
100
AcDbBlockReference
 66
     1
  2
G7PktPom
 10
8393603.894
 20
5720968.072
 30
135.24
 41
0.15
 42
0.15
 43
0.1
  0
ATTRIB
  5
81C
330
81B
100
AcDbEntity
  8
0
  6
Continuous
 62
     0
370
    -2
100
AcDbText
 10
8393604.043999998
 20
5720968.222
 30
135.24
 40
0.27
  1
8281
 41
0.8
 51
14.32394487827058
  7
G7Text
100
AcDbAttribute
  2
ID
 70
     0
280
     0
  0
ATTRIB
  5
81D
330
81B
100
AcDbEntity
  8
0
  6
Continuous
 62
     0
370
    -2
100
AcDbText
 10
8393604.043999998
 20
5720967.801999999
 30
135.24
 40
0.27
  1
135.240
 41
0.8
 51
14.32394487827058
  7
G7Text
100
AcDbAttribute
  2
H
 70
     0
280
     0
  0
SEQEND
  5
81E
330
81B
100
AcDbEntity
  8
punkty
  0
INSERT
  5
81F
330
1F
100
AcDbEntity
  8
punkty
100
AcDbBlockReference
 66
     1
  2
G7PktPom
 10
8393590.351
 20
5720974.325
 30
135.28
 41
0.15
 42
0.15
 43
0.1
  0
ATTRIB
  5
820
330
81F
100
AcDbEntity
  8
0
  6
Continuous
 62
     0
370
    -2
100
AcDbText
 10
8393590.500999998
 20
5720974.475000001
 30
135.28
 40
0.27
  1
8284
 41
0.8
 51
14.32394487827058
  7
G7Text
100
AcDbAttribute
  2
ID
 70
     0
280
     0
  0
ATTRIB
  5
821
330
81F
100
AcDbEntity
  8
0
  6
Continuous
 62
     0
370
    -2
100
AcDbText
 10
8393590.500999998
 20
5720974.055000001
 30
135.28
 40
0.27
  1
135.280
 41
0.8
 51
14.32394487827058
  7
G7Text
100
AcDbAttribute
  2
H
 70
     0
280
     0
  0
SEQEND
  5
822
330
81F
100
AcDbEntity
  8
punkty
  0
INSERT
  5
823
330
1F
100
AcDbEntity
  8
punkty
100
AcDbBlockReference
 66
     1
  2
G7PktPom
 10
8393596.949
 20
5720972.74
 30
135.2
 41
0.15
 42
0.15
 43
0.1
  0
ATTRIB
  5
824
330
823
100
AcDbEntity
  8
0
  6
Continuous
 62
     0
370
    -2
100
AcDbText
 10
8393597.098999998
 20
5720972.89
 30
135.2
 40
0.27
  1
8285
 41
0.8
 51
14.32394487827058
  7
G7Text
100
AcDbAttribute
  2
ID
 70
     0
280
     0
  0
ATTRIB
  5
825
330
823
100
AcDbEntity
  8
0
  6
Continuous
 62
     0
370
    -2
100
AcDbText
 10
8393597.098999998
 20
5720972.470000001
 30
135.2
 40
0.27
  1
135.200
 41
0.8
 51
14.32394487827058
  7
G7Text
100
AcDbAttribute
  2
H
 70
     0
280
     0
  0
SEQEND
  5
826
330
823
100
AcDbEntity
  8
punkty
  0
INSERT
  5
827
330
1F
100
AcDbEntity
  8
punkty
100
AcDbBlockReference
 66
     1
  2
G7PktPom
 10
8393585.817
 20
5720980.544
 30
135.24
 41
0.15
 42
0.15
 43
0.1
  0
ATTRIB
  5
828
330
827
100
AcDbEntity
  8
0
  6
Continuous
 62
     0
370
    -2
100
AcDbText
 10
8393585.966999998
 20
5720980.693999999
 30
135.24
 40
0.27
  1
8286
 41
0.8
 51
14.32394487827058
  7
G7Text
100
AcDbAttribute
  2
ID
 70
     0
280
     0
  0
ATTRIB
  5
829
330
827
100
AcDbEntity
  8
0
  6
Continuous
 62
     0
370
    -2
100
AcDbText
 10
8393585.966999998
 20
5720980.274
 30
135.24
 40
0.27
  1
135.240
 41
0.8
 51
14.32394487827058
  7
G7Text
100
AcDbAttribute
  2
H
 70
     0
280
     0
  0
SEQEND
  5
82A
330
827
100
AcDbEntity
  8
punkty
  0
INSERT
  5
82B
330
1F
100
AcDbEntity
  8
__ZRID
 62
     2
370
    18
100
AcDbBlockReference
 66
     1
  2
G7PktPom
 10
8393611.132
 20
5720953.639
 30
134.872
 41
0.15
 42
0.15
 43
0.1
  0
ATTRIB
  5
82C
330
82B
100
AcDbEntity
  8
0
  6
Continuous
 62
     0
370
    -2
100
AcDbText
 10
8393611.354665967
 20
5720953.586212227
 30
134.872
 40
0.27
  1
3613
 41
0.8
 51
14.32394487827058
  7
G7Text
100
AcDbAttribute
  2
ID
 70
     0
280
     0
  0
ATTRIB
  5
82D
330
82B
100
AcDbEntity
  8
0
  6
Continuous
 62
     0
370
    -2
100
AcDbText
 10
8393611.281999998
 20
5720953.369000001
 30
134.872
 40
0.27
  1
134.87
 41
0.8
 51
14.32394487827058
  7
G7Text
100
AcDbAttribute
  2
H
 70
     0
280
     0
  0
SEQEND
  5
82E
330
82B
100
AcDbEntity
  8
__ZRID
390
F
  0
INSERT
  5
82F
330
1F
100
AcDbEntity
  8
__ZRID
 62
     2
370
    18
100
AcDbBlockReference
 66
     1
  2
G7PktPom
 10
8393609.557
 20
5720953.926
 30
133.771
 41
0.15
 42
0.15
 43
0.1
  0
ATTRIB
  5
830
330
82F
100
AcDbEntity
  8
0
  6
Continuous
 62
     0
370
    -2
100
AcDbText
 10
8393609.706999999
 20
5720954.076
 30
133.771
 40
0.27
  1
3614
 41
0.8
 51
14.32394487827058
  7
G7Text
100
AcDbAttribute
  2
ID
 70
     0
280
     0
  0
ATTRIB
  5
831
330
82F
100
AcDbEntity
  8
0
  6
Continuous
 62
     0
370
    -2
100
AcDbText
 10
8393609.706999999
 20
5720953.656
 30
133.771
 40
0.27
  1
133.77
 41
0.8
 51
14.32394487827058
  7
G7Text
100
AcDbAttribute
  2
H
 70
     0
280
     0
  0
SEQEND
  5
832
330
82F
100
AcDbEntity
  8
__ZRID
390
F
  0
INSERT
  5
833
330
1F
100
AcDbEntity
  8
__ZRID
 62
     2
370
    18
100
AcDbBlockReference
 66
     1
  2
G7PktPom
 10
8393608.621
 20
5720954.052
 30
133.656
 41
0.15
 42
0.15
 43
0.1
  0
ATTRIB
  5
834
330
833
100
AcDbEntity
  8
0
  6
Continuous
 62
     0
370
    -2
100
AcDbText
 10
8393607.560109587
 20
5720953.882531303
 30
133.656
 40
0.27
  1
3615
 41
0.8
 51
14.32394487827058
  7
G7Text
100
AcDbAttribute
  2
ID
 70
     0
280
     0
  0
ATTRIB
  5
835
330
833
100
AcDbEntity
  8
0
  6
Continuous
 62
     0
370
    -2
100
AcDbText
 10
8393608.770999998
 20
5720953.782000001
 30
133.656
 40
0.27
  1
133.66
 41
0.8
 51
14.32394487827058
  7
G7Text
100
AcDbAttribute
  2
H
 70
     0
280
     0
  0
SEQEND
  5
836
330
833
100
AcDbEntity
  8
__ZRID
390
F
  0
INSERT
  5
837
330
1F
100
AcDbEntity
  8
__ZRID
 62
     2
370
    18
100
AcDbBlockReference
 66
     1
  2
G7PktPom
 10
8393607.665
 20
5720954.365
 30
134.499
 41
0.15
 42
0.15
 43
0.1
  0
ATTRIB
  5
838
330
837
100
AcDbEntity
  8
0
  6
Continuous
 62
     0
370
    -2
100
AcDbText
 10
8393606.645408314
 20
5720954.404702653
 30
134.499
 40
0.27
  1
3616
 41
0.8
 51
14.32394487827058
  7
G7Text
100
AcDbAttribute
  2
ID
 70
     0
280
     0
  0
ATTRIB
  5
839
330
837
100
AcDbEntity
  8
0
  6
Continuous
 62
     0
370
    -2
100
AcDbText
 10
8393607.814999998
 20
5720954.095000001
 30
134.499
 40
0.27
  1
134.50
 41
0.8
 51
14.32394487827058
  7
G7Text
100
AcDbAttribute
  2
H
 70
     0
280
     0
  0
SEQEND
  5
83A
330
837
100
AcDbEntity
  8
__ZRID
390
F
  0
INSERT
  5
83B
330
1F
100
AcDbEntity
  8
__ZRID
 62
     2
370
    18
100
AcDbBlockReference
 66
     1
  2
G7PktPom
 10
8393609.364
 20
5720957.851
 30
133.417
 41
0.15
 42
0.15
 43
0.1
  0
ATTRIB
  5
83C
330
83B
100
AcDbEntity
  8
0
  6
Continuous
 62
     0
370
    -2
100
AcDbText
 10
8393609.513999999
 20
5720958.000999999
 30
133.417
 40
0.27
  1
8222
 41
0.8
 51
14.32394487827058
  7
G7Text
100
AcDbAttribute
  2
ID
 70
     0
280
     0
  0
ATTRIB
  5
83D
330
83B
100
AcDbEntity
  8
0
  6
Continuous
 62
     0
370
    -2
100
AcDbText
 10
8393609.513999999
 20
5720957.581
 30
133.417
 40
0.27
  1
133.42
 41
0.8
 51
14.32394487827058
  7
G7Text
100
AcDbAttribute
  2
H
 70
     0
280
     0
  0
SEQEND
  5
83E
330
83B
100
AcDbEntity
  8
__ZRID
390
F
  0
INSERT
  5
83F
330
1F
100
AcDbEntity
  8
__ZRID
 62
     2
370
    18
100
AcDbBlockReference
 66
     1
  2
G7PktPom
 10
8393608.42
 20
5720952.529
 30
133.73
 41
0.15
 42
0.15
 43
0.1
  0
ATTRIB
  5
840
330
83F
100
AcDbEntity
  8
0
  6
Continuous
 62
     0
370
    -2
100
AcDbText
 10
8393607.610856194
 20
5720952.009348721
 30
133.73
 40
0.27
  1
8223
 41
0.8
 51
14.32394487827058
  7
G7Text
100
AcDbAttribute
  2
ID
 70
     0
280
     0
  0
ATTRIB
  5
841
330
83F
100
AcDbEntity
  8
0
  6
Continuous
 62
     0
370
    -2
100
AcDbText
 10
8393608.569999998
 20
5720952.259000001
 30
133.73
 40
0.27
  1
133.73
 41
0.8
 51
14.32394487827058
  7
G7Text
100
AcDbAttribute
  2
H
 70
     0
280
     0
  0
SEQEND
  5
842
330
83F
100
AcDbEntity
  8
__ZRID
390
F
  0
INSERT
  5
843
330
1F
100
AcDbEntity
  8
__ZRID
 62
     2
370
    18
100
AcDbBlockReference
 66
     1
  2
G7PktPom
 10
8393609.084
 20
5720952.594
 30
133.719
 41
0.15
 42
0.15
 43
0.1
  0
ATTRIB
  5
844
330
843
100
AcDbEntity
  8
0
  6
Continuous
 62
     0
370
    -2
100
AcDbText
 10
8393608.736013247
 20
5720952.522715128
 30
133.719
 40
0.27
  1
8224
 41
0.8
 51
14.32394487827058
  7
G7Text
100
AcDbAttribute
  2
ID
 70
     0
280
     0
  0
ATTRIB
  5
845
330
843
100
AcDbEntity
  8
0
  6
Continuous
 62
     0
370
    -2
100
AcDbText
 10
8393609.234
 20
5720952.324
 30
133.719
 40
0.27
  1
133.72
 41
0.8
 51
14.32394487827058
  7
G7Text
100
AcDbAttribute
  2
H
 70
     0
280
     0
  0
SEQEND
  5
846
330
843
100
AcDbEntity
  8
__ZRID
390
F
  0
INSERT
  5
847
330
1F
100
AcDbEntity
  8
__ZRID
 62
     2
370
    18
100
AcDbBlockReference
 66
     1
  2
G7PktPom
 10
8393606.811
 20
5720953.561
 30
134.639
 41
0.15
 42
0.15
 43
0.1
  0
ATTRIB
  5
848
330
847
100
AcDbEntity
  8
0
  6
Continuous
 62
     0
370
    -2
100
AcDbText
 10
8393605.810866155
 20
5720953.197934829
 30
134.639
 40
0.27
  1
8264
 41
0.8
 51
14.32394487827058
  7
G7Text
100
AcDbAttribute
  2
ID
 70
     0
280
     0
  0
ATTRIB
  5
849
330
847
100
AcDbEntity
  8
0
  6
Continuous
 62
     0
370
    -2
100
AcDbText
 10
8393606.961
 20
5720953.290999999
 30
134.639
 40
0.27
  1
134.64
 41
0.8
 51
14.32394487827058
  7
G7Text
100
AcDbAttribute
  2
H
 70
     0
280
     0
  0
SEQEND
  5
84A
330
847
100
AcDbEntity
  8
__ZRID
390
F
  0
INSERT
  5
84B
330
1F
100
AcDbEntity
  8
__ZRID
 62
     2
370
    18
100
AcDbBlockReference
 66
     1
  2
G7PktPom
 10
8393612.11
 20
5720950.889
 30
134.761
 41
0.15
 42
0.15
 43
0.1
  0
ATTRIB
  5
84C
330
84B
100
AcDbEntity
  8
0
  6
Continuous
 62
     0
370
    -2
100
AcDbText
 10
8393612.179494549
 20
5720950.483987805
 30
134.761
 40
0.27
  1
8265
 41
0.8
 51
14.32394487827058
  7
G7Text
100
AcDbAttribute
  2
ID
 70
     0
280
     0
  0
ATTRIB
  5
84D
330
84B
100
AcDbEntity
  8
0
  6
Continuous
 62
     0
370
    -2
100
AcDbText
 10
8393612.259999996
 20
5720950.619000001
 30
134.761
 40
0.27
  1
134.76
 41
0.8
 51
14.32394487827058
  7
G7Text
100
AcDbAttribute
  2
H
 70
     0
280
     0
  0
SEQEND
  5
84E
330
84B
100
AcDbEntity
  8
__ZRID
390
F
  0
INSERT
  5
84F
330
1F
100
AcDbEntity
  8
__ZRID
 62
     2
370
    18
100
AcDbBlockReference
 66
     1
  2
G7PktPom
 10
8393610.914
 20
5720951.133
 30
134.823
 41
0.15
 42
0.15
 43
0.1
  0
ATTRIB
  5
850
330
84F
100
AcDbEntity
  8
0
  6
Continuous
 62
     0
370
    -2
100
AcDbText
 10
8393610.128753629
 20
5720950.55730735
 30
134.823
 40
0.27
  1
8266
 41
0.8
 51
14.32394487827058
  7
G7Text
100
AcDbAttribute
  2
ID
 70
     0
280
     0
  0
ATTRIB
  5
851
330
84F
100
AcDbEntity
  8
0
  6
Continuous
 62
     0
370
    -2
100
AcDbText
 10
8393611.064
 20
5720950.863000001
 30
134.823
 40
0.27
  1
134.82
 41
0.8
 51
14.32394487827058
  7
G7Text
100
AcDbAttribute
  2
H
 70
     0
280
     0
  0
SEQEND
  5
852
330
84F
100
AcDbEntity
  8
__ZRID
390
F
  0
INSERT
  5
853
330
1F
100
AcDbEntity
  8
__ZRID
 62
     2
370
    18
100
AcDbBlockReference
 66
     1
  2
G7PktPom
 10
8393610.606
 20
5720951.995
 30
134.668
 41
0.15
 42
0.15
 43
0.1
  0
ATTRIB
  5
854
330
853
100
AcDbEntity
  8
0
  6
Continuous
 62
     0
370
    -2
100
AcDbText
 10
8393610.794746716
 20
5720951.967506259
 30
134.668
 40
0.27
  1
8267
 41
0.8
 51
14.32394487827058
  7
G7Text
100
AcDbAttribute
  2
ID
 70
     0
280
     0
  0
ATTRIB
  5
855
330
853
100
AcDbEntity
  8
0
  6
Continuous
 62
     0
370
    -2
100
AcDbText
 10
8393610.756
 20
5720951.725000001
 30
134.668
 40
0.27
  1
134.67
 41
0.8
 51
14.32394487827058
  7
G7Text
100
AcDbAttribute
  2
H
 70
     0
280
     0
  0
SEQEND
  5
856
330
853
100
AcDbEntity
  8
__ZRID
390
F
  0
INSERT
  5
857
330
1F
100
AcDbEntity
  8
__ZRID
 62
     2
370
    18
100
AcDbBlockReference
 66
     1
  2
G7PktPom
 10
8393597.375
 20
5720961.694
 30
135.091
 41
0.15
 42
0.15
 43
0.1
  0
ATTRIB
  5
858
330
857
100
AcDbEntity
  8
0
  6
Continuous
 62
     0
370
    -2
100
AcDbText
 10
8393597.524999999
 20
5720961.844
 30
135.091
 40
0.27
  1
8282
 41
0.8
 51
14.32394487827058
  7
G7Text
100
AcDbAttribute
  2
ID
 70
     0
280
     0
  0
ATTRIB
  5
859
330
857
100
AcDbEntity
  8
0
  6
Continuous
 62
     0
370
    -2
100
AcDbText
 10
8393597.524999999
 20
5720961.424000001
 30
135.091
 40
0.27
  1
135.09
 41
0.8
 51
14.32394487827058
  7
G7Text
100
AcDbAttribute
  2
H
 70
     0
280
     0
  0
SEQEND
  5
85A
330
857
100
AcDbEntity
  8
__ZRID
390
F
  0
INSERT
  5
85B
330
1F
100
AcDbEntity
  8
__ZRID
 62
     2
370
    18
100
AcDbBlockReference
 66
     1
  2
G7PktPom
 10
8393588.322
 20
5720964.328
 30
135.232
 41
0.15
 42
0.15
 43
0.1
  0
ATTRIB
  5
85C
330
85B
100
AcDbEntity
  8
0
  6
Continuous
 62
     0
370
    -2
100
AcDbText
 10
8393588.472
 20
5720964.477999999
 30
135.232
 40
0.27
  1
8283
 41
0.8
 51
14.32394487827058
  7
G7Text
100
AcDbAttribute
  2
ID
 70
     0
280
     0
  0
ATTRIB
  5
85D
330
85B
100
AcDbEntity
  8
0
  6
Continuous
 62
     0
370
    -2
100
AcDbText
 10
8393588.472
 20
5720964.058
 30
135.232
 40
0.27
  1
135.23
 41
0.8
 51
14.32394487827058
  7
G7Text
100
AcDbAttribute
  2
H
 70
     0
280
     0
  0
SEQEND
  5
85E
330
85B
100
AcDbEntity
  8
__ZRID
390
F
  0
INSERT
  5
85F
330
1F
100
AcDbEntity
  8
__ZRID
 62
     2
370
    18
100
AcDbBlockReference
 66
     1
  2
G7PktPom
 10
8393578.338
 20
5720973.639
 30
135.195
 41
0.15
 42
0.15
 43
0.1
  0
ATTRIB
  5
860
330
85F
100
AcDbEntity
  8
0
  6
Continuous
 62
     0
370
    -2
100
AcDbText
 10
8393578.487999998
 20
5720973.789
 30
135.195
 40
0.27
  1
8287
 41
0.8
 51
14.32394487827058
  7
G7Text
100
AcDbAttribute
  2
ID
 70
     0
280
     0
  0
ATTRIB
  5
861
330
85F
100
AcDbEntity
  8
0
  6
Continuous
 62
     0
370
    -2
100
AcDbText
 10
8393578.487999998
 20
5720973.369000001
 30
135.195
 40
0.27
  1
135.20
 41
0.8
 51
14.32394487827058
  7
G7Text
100
AcDbAttribute
  2
H
 70
     0
280
     0
  0
SEQEND
  5
862
330
85F
100
AcDbEntity
  8
__ZRID
390
F
  0
INSERT
  5
863
330
1F
100
AcDbEntity
  8
__ZRID
 62
     2
370
    18
100
AcDbBlockReference
 66
     1
  2
G7PktPom
 10
8393571.417
 20
5720984.307
 30
135.555
 41
0.15
 42
0.15
 43
0.1
  0
ATTRIB
  5
864
330
863
100
AcDbEntity
  8
0
  6
Continuous
 62
     0
370
    -2
100
AcDbText
 10
8393571.566999998
 20
5720984.456999999
 30
135.555
 40
0.27
  1
8288
 41
0.8
 51
14.32394487827058
  7
G7Text
100
AcDbAttribute
  2
ID
 70
     0
280
     0
  0
ATTRIB
  5
865
330
863
100
AcDbEntity
  8
0
  6
Continuous
 62
     0
370
    -2
100
AcDbText
 10
8393571.566999998
 20
5720984.037
 30
135.555
 40
0.27
  1
135.56
 41
0.8
 51
14.32394487827058
  7
G7Text
100
AcDbAttribute
  2
H
 70
     0
280
     0
  0
SEQEND
  5
866
330
863
100
AcDbEntity
  8
__ZRID
390
F
  0
INSERT
  5
867
330
1F
100
AcDbEntity
  8
__ZRID
 62
     2
370
    18
100
AcDbBlockReference
 66
     1
  2
G7PktPom
 10
8393578.614
 20
5720992.87
 30
135.429
 41
0.15
 42
0.15
 43
0.1
  0
ATTRIB
  5
868
330
867
100
AcDbEntity
  8
0
  6
Continuous
 62
     0
370
    -2
100
AcDbText
 10
8393578.763999999
 20
5720993.02
 30
135.429
 40
0.27
  1
8289
 41
0.8
 51
14.32394487827058
  7
G7Text
100
AcDbAttribute
  2
ID
 70
     0
280
     0
  0
ATTRIB
  5
869
330
867
100
AcDbEntity
  8
0
  6
Continuous
 62
     0
370
    -2
100
AcDbText
 10
8393578.763999999
 20
5720992.600000001
 30
135.429
 40
0.27
  1
135.43
 41
0.8
 51
14.32394487827058
  7
G7Text
100
AcDbAttribute
  2
H
 70
     0
280
     0
  0
SEQEND
  5
86A
330
867
100
AcDbEntity
  8
__ZRID
390
F
  0
POLYLINE
  5
86B
330
1F
100
AcDbEntity
  8
0
 62
     6
100
AcDb3dPolyline
 66
     1
 10
0.0
 20
0.0
 30
0.0
 70
     8
1001
TRIMBLENAME
1000
a
  0
VERTEX
  5
86C
330
86B
100
AcDbEntity
  8
0
 62
     6
100
AcDbVertex
100
AcDb3dPolylineVertex
 10
8393661.357
 20
5721014.671
 30
135.277
 70
    32
  0
VERTEX
  5
86D
330
86B
100
AcDbEntity
  8
0
 62
     6
100
AcDbVertex
100
AcDb3dPolylineVertex
 10
8393660.477
 20
5721013.955
 30
135.289
 70
    32
  0
VERTEX
  5
86E
330
86B
100
AcDbEntity
  8
0
 62
     6
100
AcDbVertex
100
AcDb3dPolylineVertex
 10
8393660.472000001
 20
5721013.857999999
 30
135.342
 70
    32
  0
VERTEX
  5
86F
330
86B
100
AcDbEntity
  8
0
 62
     6
100
AcDbVertex
100
AcDb3dPolylineVertex
 10
8393658.236
 20
5721005.527000001
 30
135.185
 70
    32
  0
VERTEX
  5
870
330
86B
100
AcDbEntity
  8
polilinie 3d po punktach
 62
     1
100
AcDbVertex
100
AcDb3dPolylineVertex
 10
8393655.912
 20
5721001.198
 30
135.22
 70
    32
  0
VERTEX
  5
871
330
86B
100
AcDbEntity
  8
0
 62
     6
100
AcDbVertex
100
AcDb3dPolylineVertex
 10
8393654.281
 20
5720998.471
 30
135.185
 70
    32
  0
SEQEND
  5
872
330
86B
100
AcDbEntity
  8
0
 62
     6
  0
POLYLINE
  5
873
330
1F
100
AcDbEntity
  8
polilinie 3d po punktach
 62
     1
100
AcDb3dPolyline
 66
     1
 10
0.0
 20
0.0
 30
0.0
 70
     8
  0
VERTEX
  5
874
330
873
100
AcDbEntity
  8
polilinie 3d po punktach
 62
     1
100
AcDbVertex
100
AcDb3dPolylineVertex
 10
8393662.945
 20
5721014.775
 30
135.253
 70
    32
  0
VERTEX
  5
875
330
873
100
AcDbEntity
  8
polilinie 3d po punktach
 62
     1
100
AcDbVertex
100
AcDb3dPolylineVertex
 10
8393663.005
 20
5721013.401
 30
135.205
 70
    32
  0
VERTEX
  5
876
330
873
100
AcDbEntity
  8
polilinie 3d po punktach
 62
     1
100
AcDbVertex
100
AcDb3dPolylineVertex
 10
8393660.772
 20
5721004.318
 30
135.216
 70
    32
  0
VERTEX
  5
877
330
873
100
AcDbEntity
  8
polilinie 3d po punktach
 62
     1
100
AcDbVertex
100
AcDb3dPolylineVertex
 10
8393657.879
 20
5720998.49
 30
135.17
 70
    32
  0
VERTEX
  5
878
330
873
100
AcDbEntity
  8
polilinie 3d po punktach
 62
     1
100
AcDbVertex
100
AcDb3dPolylineVertex
 10
8393656.841
 20
5720996.414
 30
135.207
 70
    32
  0
VERTEX
  5
879
330
873
100
AcDbEntity
  8
polilinie 3d po punktach
 62
     1
100
AcDbVertex
100
AcDb3dPolylineVertex
 10
8393651.912
 20
5720990.933
 30
135.24
 70
    32
  0
VERTEX
  5
87A
330
873
100
AcDbEntity
  8
polilinie 3d po punktach
 62
     1
100
AcDbVertex
100
AcDb3dPolylineVertex
 10
8393634.948
 20
5720978.481
 30
135.28
 70
    32
  0
VERTEX
  5
87B
330
873
100
AcDbEntity
  8
polilinie 3d po punktach
 62
     1
100
AcDbVertex
100
AcDb3dPolylineVertex
 10
8393633.663
 20
5720977.866
 30
135.23
 70
    32
  0
VERTEX
  5
87C
330
873
100
AcDbEntity
  8
polilinie 3d po punktach
 62
     1
100
AcDbVertex
100
AcDb3dPolylineVertex
 10
8393626.06
 20
5720974.749
 30
135.13
 70
    32
  0
VERTEX
  5
87D
330
873
100
AcDbEntity
  8
polilinie 3d po punktach
 62
     1
100
AcDbVertex
100
AcDb3dPolylineVertex
 10
8393615.796
 20
5720973.828
 30
135.23
 70
    32
  0
VERTEX
  5
87E
330
873
100
AcDbEntity
  8
polilinie 3d po punktach
 62
     1
100
AcDbVertex
100
AcDb3dPolylineVertex
 10
8393614.567
 20
5720973.431
 30
135.24
 70
    32
  0
VERTEX
  5
87F
330
873
100
AcDbEntity
  8
polilinie 3d po punktach
 62
     1
100
AcDbVertex
100
AcDb3dPolylineVertex
 10
8393614.137
 20
5720970.98
 30
135.17
 70
    32
  0
VERTEX
  5
880
330
873
100
AcDbEntity
  8
polilinie 3d po punktach
 62
     1
100
AcDbVertex
100
AcDb3dPolylineVertex
 10
8393612.196
 20
5720959.067
 30
134.98
 70
    32
  0
VERTEX
  5
881
330
873
100
AcDbEntity
  8
polilinie 3d po punktach
 62
     1
100
AcDbVertex
100
AcDb3dPolylineVertex
 10
8393611.132
 20
5720953.639
 30
134.872
 70
    32
  0
VERTEX
  5
882
330
873
100
AcDbEntity
  8
polilinie 3d po punktach
 62
     1
100
AcDbVertex
100
AcDb3dPolylineVertex
 10
8393610.606
 20
5720951.995
 30
134.668
 70
    32
  0
VERTEX
  5
883
330
873
100
AcDbEntity
  8
polilinie 3d po punktach
 62
     1
100
AcDbVertex
100
AcDb3dPolylineVertex
 10
8393610.914
 20
5720951.133
 30
134.823
 70
    32
  0
VERTEX
  5
884
330
873
100
AcDbEntity
  8
polilinie 3d po punktach
 62
     1
100
AcDbVertex
100
AcDb3dPolylineVertex
 10
8393612.11
 20
5720950.889
 30
134.761
 70
    32
  0
SEQEND
  5
885
330
873
100
AcDbEntity
  8
polilinie 3d po punktach
 62
     1
  0
POLYLINE
  5
886
330
1F
100
AcDbEntity
  8
polilinie 3d po punktach
 62
     1
100
AcDb3dPolyline
 66
     1
 10
0.0
 20
0.0
 30
0.0
 70
     8
  0
VERTEX
  5
887
330
886
100
AcDbEntity
  8
polilinie 3d po punktach
 62
     1
100
AcDbVertex
100
AcDb3dPolylineVertex
 10
8393655.659
 20
5720997.108
 30
134.56
 70
    32
  0
VERTEX
  5
888
330
886
100
AcDbEntity
  8
polilinie 3d po punktach
 62
     1
100
AcDbVertex
100
AcDb3dPolylineVertex
 10
8393651.12
 20
5720991.568
 30
134.59
 70
    32
  0
VERTEX
  5
889
330
886
100
AcDbEntity
  8
polilinie 3d po punktach
 62
     1
100
AcDbVertex
100
AcDb3dPolylineVertex
 10
8393650.506
 20
5720991.253
 30
134.508
 70
    32
  0
VERTEX
  5
88A
330
886
100
AcDbEntity
  8
polilinie 3d po punktach
 62
     1
100
AcDbVertex
100
AcDb3dPolylineVertex
 10
8393634.547
 20
5720980.245
 30
134.17
 70
    32
  0
VERTEX
  5
88B
330
886
100
AcDbEntity
  8
polilinie 3d po punktach
 62
     1
100
AcDbVertex
100
AcDb3dPolylineVertex
 10
8393626.765
 20
5720977.306
 30
133.66
 70
    32
  0
VERTEX
  5
88C
330
886
100
AcDbEntity
  8
polilinie 3d po punktach
 62
     1
100
AcDbVertex
100
AcDb3dPolylineVertex
 10
8393618.415
 20
5720976.15
 30
133.49
 70
    32
  0
VERTEX
  5
88D
330
886
100
AcDbEntity
  8
polilinie 3d po punktach
 62
     1
100
AcDbVertex
100
AcDb3dPolylineVertex
 10
8393613.532552
 20
5720975.79053
 30
133.511115
 70
    32
  0
VERTEX
  5
88E
330
886
100
AcDbEntity
  8
polilinie 3d po punktach
 62
     1
100
AcDbVertex
100
AcDb3dPolylineVertex
 10
8393612.649228
 20
5720975.204872
 30
133.46163
 70
    32
  0
VERTEX
  5
88F
330
886
100
AcDbEntity
  8
polilinie 3d po punktach
 62
     1
100
AcDbVertex
100
AcDb3dPolylineVertex
 10
8393612.409
 20
5720974.537
 30
133.61
 70
    32
  0
VERTEX
  5
890
330
886
100
AcDbEntity
  8
polilinie 3d po punktach
 62
     1
100
AcDbVertex
100
AcDb3dPolylineVertex
 10
8393611.85
 20
5720970.559
 30
133.63
 70
    32
  0
VERTEX
  5
891
330
886
100
AcDbEntity
  8
polilinie 3d po punktach
 62
     1
100
AcDbVertex
100
AcDb3dPolylineVertex
 10
8393610.257
 20
5720960.237
 30
133.54
 70
    32
  0
VERTEX
  5
892
330
886
100
AcDbEntity
  8
polilinie 3d po punktach
 62
     1
100
AcDbVertex
100
AcDb3dPolylineVertex
 10
8393610.202
 20
5720959.015
 30
133.57
 70
    32
  0
VERTEX
  5
893
330
886
100
AcDbEntity
  8
polilinie 3d po punktach
 62
     1
100
AcDbVertex
100
AcDb3dPolylineVertex
 10
8393609.557
 20
5720953.926
 30
133.771
 70
    32
  0
VERTEX
  5
894
330
886
100
AcDbEntity
  8
polilinie 3d po punktach
 62
     1
100
AcDbVertex
100
AcDb3dPolylineVertex
 10
8393609.084
 20
5720952.594
 30
133.719
 70
    32
  0
SEQEND
  5
895
330
886
100
AcDbEntity
  8
polilinie 3d po punktach
 62
     1
  0
POLYLINE
  5
896
330
1F
100
AcDbEntity
  8
polilinie 3d po punktach
 62
     1
100
AcDb3dPolyline
 66
     1
 10
0.0
 20
0.0
 30
0.0
 70
     8
  0
VERTEX
  5
897
330
896
100
AcDbEntity
  8
polilinie 3d po punktach
 62
     1
100
AcDbVertex
100
AcDb3dPolylineVertex
 10
8393608.42
 20
5720952.529
 30
133.73
 70
    32
  0
VERTEX
  5
898
330
896
100
AcDbEntity
  8
polilinie 3d po punktach
 62
     1
100
AcDbVertex
100
AcDb3dPolylineVertex
 10
8393608.621
 20
5720954.052
 30
133.656
 70
    32
  0
VERTEX
  5
899
330
896
100
AcDbEntity
  8
polilinie 3d po punktach
 62
     1
100
AcDbVertex
100
AcDb3dPolylineVertex
 10
8393609.364
 20
5720957.851
 30
133.417
 70
    32
  0
VERTEX
  5
89A
330
896
100
AcDbEntity
  8
polilinie 3d po punktach
 62
     1
100
AcDbVertex
100
AcDb3dPolylineVertex
 10
8393609.591
 20
5720959.378
 30
133.48
 70
    32
  0
VERTEX
  5
89B
330
896
100
AcDbEntity
  8
polilinie 3d po punktach
 62
     1
100
AcDbVertex
100
AcDb3dPolylineVertex
 10
8393610.828
 20
5720967.832
 30
133.74
 70
    32
  0
VERTEX
  5
89C
330
896
100
AcDbEntity
  8
polilinie 3d po punktach
 62
     1
100
AcDbVertex
100
AcDb3dPolylineVertex
 10
8393611.972
 20
5720975.205
 30
133.63
 70
    32
  0
VERTEX
  5
89D
330
896
100
AcDbEntity
  8
polilinie 3d po punktach
 62
     1
100
AcDbVertex
100
AcDb3dPolylineVertex
 10
8393609.606
 20
5720976.735
 30
133.69
 70
    32
  0
VERTEX
  5
89E
330
896
100
AcDbEntity
  8
polilinie 3d po punktach
 62
     1
100
AcDbVertex
100
AcDb3dPolylineVertex
 10
8393607.219
 20
5720977.834
 30
133.56
 70
    32
  0
VERTEX
  5
89F
330
896
100
AcDbEntity
  8
polilinie 3d po punktach
 62
     1
100
AcDbVertex
100
AcDb3dPolylineVertex
 10
8393602.178
 20
5720980.339
 30
133.8
 70
    32
  0
VERTEX
  5
8A0
330
896
100
AcDbEntity
  8
polilinie 3d po punktach
 62
     1
100
AcDbVertex
100
AcDb3dPolylineVertex
 10
8393596.926
 20
5720984.149
 30
134.04
 70
    32
  0
VERTEX
  5
8A1
330
896
100
AcDbEntity
  8
polilinie 3d po punktach
 62
     1
100
AcDbVertex
100
AcDb3dPolylineVertex
 10
8393593.172
 20
5720987.039
 30
134.32
 70
    32
  0
VERTEX
  5
8A2
330
896
100
AcDbEntity
  8
polilinie 3d po punktach
 62
     1
100
AcDbVertex
100
AcDb3dPolylineVertex
 10
8393589.282
 20
5720991.693
 30
134.41
 70
    32
  0
SEQEND
  5
8A3
330
896
100
AcDbEntity
  8
polilinie 3d po punktach
 62
     1
  0
POLYLINE
  5
8A4
330
1F
100
AcDbEntity
  8
polilinie 3d po punktach
 62
     1
100
AcDb3dPolyline
 66
     1
 10
0.0
 20
0.0
 30
0.0
 70
     8
  0
VERTEX
  5
8A5
330
8A4
100
AcDbEntity
  8
polilinie 3d po punktach
 62
     1
100
AcDbVertex
100
AcDb3dPolylineVertex
 10
8393654.281
 20
5720998.471
 30
135.185
 70
    32
  0
VERTEX
  5
8A6
330
8A4
100
AcDbEntity
  8
polilinie 3d po punktach
 62
     1
100
AcDbVertex
100
AcDb3dPolylineVertex
 10
8393649.749
 20
5720992.685
 30
135.09
 70
    32
  0
VERTEX
  5
8A7
330
8A4
100
AcDbEntity
  8
polilinie 3d po punktach
 62
     1
100
AcDbVertex
100
AcDb3dPolylineVertex
 10
8393649.521
 20
5720992.527
 30
135.037
 70
    32
  0
VERTEX
  5
8A8
330
8A4
100
AcDbEntity
  8
polilinie 3d po punktach
 62
     1
100
AcDbVertex
100
AcDb3dPolylineVertex
 10
8393633.604
 20
5720982.302
 30
134.95
 70
    32
  0
VERTEX
  5
8A9
330
8A4
100
AcDbEntity
  8
polilinie 3d po punktach
 62
     1
100
AcDbVertex
100
AcDb3dPolylineVertex
 10
8393625.049
 20
5720979.699
 30
135.07
 70
    32
  0
VERTEX
  5
8AA
330
8A4
100
AcDbEntity
  8
polilinie 3d po punktach
 62
     1
100
AcDbVertex
100
AcDb3dPolylineVertex
 10
8393615.7
 20
5720979.168
 30
135.08
 70
    32
  0
VERTEX
  5
8AB
330
8A4
100
AcDbEntity
  8
polilinie 3d po punktach
 62
     1
100
AcDbVertex
100
AcDb3dPolylineVertex
 10
8393613.559
 20
5720979.301
 30
134.97
 70
    32
  0
VERTEX
  5
8AC
330
8A4
100
AcDbEntity
  8
polilinie 3d po punktach
 62
     1
100
AcDbVertex
100
AcDb3dPolylineVertex
 10
8393610.813
 20
5720980.24
 30
135.11
 70
    32
  0
VERTEX
  5
8AD
330
8A4
100
AcDbEntity
  8
polilinie 3d po punktach
 62
     1
100
AcDbVertex
100
AcDb3dPolylineVertex
 10
8393603.305
 20
5720983.81
 30
135.18
 70
    32
  0
VERTEX
  5
8AE
330
8A4
100
AcDbEntity
  8
polilinie 3d po punktach
 62
     1
100
AcDbVertex
100
AcDb3dPolylineVertex
 10
8393602.264
 20
5720984.113
 30
135.13
 70
    32
  0
VERTEX
  5
8AF
330
8A4
100
AcDbEntity
  8
polilinie 3d po punktach
 62
     1
100
AcDbVertex
100
AcDb3dPolylineVertex
 10
8393595.362
 20
5720988.683
 30
135.25
 70
    32
  0
VERTEX
  5
8B0
330
8A4
100
AcDbEntity
  8
polilinie 3d po punktach
 62
     1
100
AcDbVertex
100
AcDb3dPolylineVertex
 10
8393592.883
 20
5720990.998
 30
135.28
 70
    32
  0
VERTEX
  5
8B1
330
8A4
100
AcDbEntity
  8
polilinie 3d po punktach
 62
     1
100
AcDbVertex
100
AcDb3dPolylineVertex
 10
8393586.524
 20
5720999.189
 30
135.31
 70
    32
  0
VERTEX
  5
8B2
330
8A4
100
AcDbEntity
  8
polilinie 3d po punktach
 62
     1
100
AcDbVertex
100
AcDb3dPolylineVertex
 10
8393582.026
 20
5721009.299
 30
135.47
 70
    32
  0
VERTEX
  5
8B3
330
8A4
100
AcDbEntity
  8
polilinie 3d po punktach
 62
     1
100
AcDbVertex
100
AcDb3dPolylineVertex
 10
8393576.578
 20
5721026.157
 30
135.59
 70
    32
  0
VERTEX
  5
8B4
330
8A4
100
AcDbEntity
  8
polilinie 3d po punktach
 62
     1
100
AcDbVertex
100
AcDb3dPolylineVertex
 10
8393571.582
 20
5721041.503
 30
135.81
 70
    32
  0
VERTEX
  5
8B5
330
8A4
100
AcDbEntity
  8
polilinie 3d po punktach
 62
     1
100
AcDbVertex
100
AcDb3dPolylineVertex
 10
8393566.461
 20
5721056.601
 30
135.98
 70
    32
  0
VERTEX
  5
8B6
330
8A4
100
AcDbEntity
  8
polilinie 3d po punktach
 62
     1
100
AcDbVertex
100
AcDb3dPolylineVertex
 10
8393563.779
 20
5721062.691
 30
136.01
 70
    32
  0
VERTEX
  5
8B7
330
8A4
100
AcDbEntity
  8
polilinie 3d po punktach
 62
     1
100
AcDbVertex
100
AcDb3dPolylineVertex
 10
8393560.778
 20
5721065.856
 30
135.81
 70
    32
  0
VERTEX
  5
8B8
330
8A4
100
AcDbEntity
  8
polilinie 3d po punktach
 62
     1
100
AcDbVertex
100
AcDb3dPolylineVertex
 10
8393559.568
 20
5721065.656
 30
135.83
 70
    32
  0
VERTEX
  5
8B9
330
8A4
100
AcDbEntity
  8
polilinie 3d po punktach
 62
     1
100
AcDbVertex
100
AcDb3dPolylineVertex
 10
8393558.965
 20
5721063.967
 30
135.78
 70
    32
  0
VERTEX
  5
8BA
330
8A4
100
AcDbEntity
  8
polilinie 3d po punktach
 62
     1
100
AcDbVertex
100
AcDb3dPolylineVertex
 10
8393561.132
 20
5721059.095
 30
135.64
 70
    32
  0
VERTEX
  5
8BB
330
8A4
100
AcDbEntity
  8
polilinie 3d po punktach
 62
     1
100
AcDbVertex
100
AcDb3dPolylineVertex
 10
8393565.404
 20
5721047.875
 30
135.62
 70
    32
  0
VERTEX
  5
8BC
330
8A4
100
AcDbEntity
  8
polilinie 3d po punktach
 62
     1
100
AcDbVertex
100
AcDb3dPolylineVertex
 10
8393571.889
 20
5721031.987
 30
135.42
 70
    32
  0
VERTEX
  5
8BD
330
8A4
100
AcDbEntity
  8
polilinie 3d po punktach
 62
     1
100
AcDbVertex
100
AcDb3dPolylineVertex
 10
8393577.114
 20
5721016.353
 30
135.46
 70
    32
  0
VERTEX
  5
8BE
330
8A4
100
AcDbEntity
  8
polilinie 3d po punktach
 62
     1
100
AcDbVertex
100
AcDb3dPolylineVertex
 10
8393581.661
 20
5721002.37
 30
135.18
 70
    32
  0
VERTEX
  5
8BF
330
8A4
100
AcDbEntity
  8
polilinie 3d po punktach
 62
     1
100
AcDbVertex
100
AcDb3dPolylineVertex
 10
8393588.029
 20
5720991.918
 30
135.05
 70
    32
  0
VERTEX
  5
8C0
330
8A4
100
AcDbEntity
  8
polilinie 3d po punktach
 62
     1
100
AcDbVertex
100
AcDb3dPolylineVertex
 10
8393592.2
 20
5720986.589
 30
134.85
 70
    32
  0
VERTEX
  5
8C1
330
8A4
100
AcDbEntity
  8
polilinie 3d po punktach
 62
     1
100
AcDbVertex
100
AcDb3dPolylineVertex
 10
8393592.324
 20
5720986.406
 30
134.85
 70
    32
  0
VERTEX
  5
8C2
330
8A4
100
AcDbEntity
  8
polilinie 3d po punktach
 62
     1
100
AcDbVertex
100
AcDb3dPolylineVertex
 10
8393599.313
 20
5720980.354
 30
134.89
 70
    32
  0
VERTEX
  5
8C3
330
8A4
100
AcDbEntity
  8
polilinie 3d po punktach
 62
     1
100
AcDbVertex
100
AcDb3dPolylineVertex
 10
8393601.434
 20
5720978.838
 30
135.03
 70
    32
  0
VERTEX
  5
8C4
330
8A4
100
AcDbEntity
  8
polilinie 3d po punktach
 62
     1
100
AcDbVertex
100
AcDb3dPolylineVertex
 10
8393607.316
 20
5720975.674
 30
135.21
 70
    32
  0
VERTEX
  5
8C5
330
8A4
100
AcDbEntity
  8
polilinie 3d po punktach
 62
     1
100
AcDbVertex
100
AcDb3dPolylineVertex
 10
8393608.573
 20
5720974.889
 30
135.22
 70
    32
  0
VERTEX
  5
8C6
330
8A4
100
AcDbEntity
  8
polilinie 3d po punktach
 62
     1
100
AcDbVertex
100
AcDb3dPolylineVertex
 10
8393609.88
 20
5720973.89
 30
135.19
 70
    32
  0
VERTEX
  5
8C7
330
8A4
100
AcDbEntity
  8
polilinie 3d po punktach
 62
     1
100
AcDbVertex
100
AcDb3dPolylineVertex
 10
8393609.776
 20
5720972.875
 30
135.18
 70
    32
  0
VERTEX
  5
8C8
330
8A4
100
AcDbEntity
  8
polilinie 3d po punktach
 62
     1
100
AcDbVertex
100
AcDb3dPolylineVertex
 10
8393607.581
 20
5720963.691
 30
135.2
 70
    32
  0
VERTEX
  5
8C9
330
8A4
100
AcDbEntity
  8
polilinie 3d po punktach
 62
     1
100
AcDbVertex
100
AcDb3dPolylineVertex
 10
8393606.811
 20
5720953.561
 30
134.639
 70
    32
  0
SEQEND
  5
8CA
330
8A4
100
AcDbEntity
  8
polilinie 3d po punktach
 62
     1
  0
POLYLINE
  5
8CB
330
1F
100
AcDbEntity
  8
polilinie 3d po punktach
 62
     1
100
AcDb3dPolyline
 66
     1
 10
0.0
 20
0.0
 30
0.0
 70
     8
  0
VERTEX
  5
8CC
330
8CB
100
AcDbEntity
  8
polilinie 3d po punktach
 62
     1
100
AcDbVertex
100
AcDb3dPolylineVertex
 10
8393562.043
 20
5721062.048
 30
135.68
 70
    32
  0
VERTEX
  5
8CD
330
8CB
100
AcDbEntity
  8
polilinie 3d po punktach
 62
     1
100
AcDbVertex
100
AcDb3dPolylineVertex
 10
8393562.691472
 20
5721062.332412
 30
135.626164
 70
    32
  0
VERTEX
  5
8CE
330
8CB
100
AcDbEntity
  8
polilinie 3d po punktach
 62
     1
100
AcDbVertex
100
AcDb3dPolylineVertex
 10
8393567.999
 20
5721046.888
 30
135.28
 70
    32
  0
VERTEX
  5
8CF
330
8CB
100
AcDbEntity
  8
polilinie 3d po punktach
 62
     1
100
AcDbVertex
100
AcDb3dPolylineVertex
 10
8393574.233
 20
5721029.061
 30
135.06
 70
    32
  0
VERTEX
  5
8D0
330
8CB
100
AcDbEntity
  8
polilinie 3d po punktach
 62
     1
100
AcDbVertex
100
AcDb3dPolylineVertex
 10
8393580.147
 20
5721010.994
 30
134.82
 70
    32
  0
VERTEX
  5
8D1
330
8CB
100
AcDbEntity
  8
polilinie 3d po punktach
 62
     1
100
AcDbVertex
100
AcDb3dPolylineVertex
 10
8393584.065
 20
5721000.623
 30
134.71
 70
    32
  0
VERTEX
  5
8D2
330
8CB
100
AcDbEntity
  8
polilinie 3d po punktach
 62
     1
100
AcDbVertex
100
AcDb3dPolylineVertex
 10
8393589.772
 20
5720992.085
 30
134.45
 70
    32
  0
VERTEX
  5
8D3
330
8CB
100
AcDbEntity
  8
polilinie 3d po punktach
 62
     1
100
AcDbVertex
100
AcDb3dPolylineVertex
 10
8393593.745
 20
5720987.793
 30
134.18
 70
    32
  0
VERTEX
  5
8D4
330
8CB
100
AcDbEntity
  8
polilinie 3d po punktach
 62
     1
100
AcDbVertex
100
AcDb3dPolylineVertex
 10
8393597.174
 20
5720984.777
 30
134.02
 70
    32
  0
VERTEX
  5
8D5
330
8CB
100
AcDbEntity
  8
polilinie 3d po punktach
 62
     1
100
AcDbVertex
100
AcDb3dPolylineVertex
 10
8393602.333
 20
5720982.062
 30
134.02
 70
    32
  0
VERTEX
  5
8D6
330
8CB
100
AcDbEntity
  8
polilinie 3d po punktach
 62
     1
100
AcDbVertex
100
AcDb3dPolylineVertex
 10
8393609.102
 20
5720977.996
 30
133.68
 70
    32
  0
VERTEX
  5
8D7
330
8CB
100
AcDbEntity
  8
polilinie 3d po punktach
 62
     1
100
AcDbVertex
100
AcDb3dPolylineVertex
 10
8393609.553
 20
5720977.963
 30
133.59
 70
    32
  0
VERTEX
  5
8D8
330
8CB
100
AcDbEntity
  8
polilinie 3d po punktach
 62
     1
100
AcDbVertex
100
AcDb3dPolylineVertex
 10
8393614.948
 20
5720976.654
 30
133.52
 70
    32
  0
VERTEX
  5
8D9
330
8CB
100
AcDbEntity
  8
polilinie 3d po punktach
 62
     1
100
AcDbVertex
100
AcDb3dPolylineVertex
 10
8393618.354
 20
5720976.364
 30
133.45
 70
    32
  0
VERTEX
  5
8DA
330
8CB
100
AcDbEntity
  8
polilinie 3d po punktach
 62
     1
100
AcDbVertex
100
AcDb3dPolylineVertex
 10
8393626.619
 20
5720977.717
 30
133.65
 70
    32
  0
VERTEX
  5
8DB
330
8CB
100
AcDbEntity
  8
polilinie 3d po punktach
 62
     1
100
AcDbVertex
100
AcDb3dPolylineVertex
 10
8393632.913
 20
5720979.936
 30
133.99
 70
    32
  0
VERTEX
  5
8DC
330
8CB
100
AcDbEntity
  8
polilinie 3d po punktach
 62
     1
100
AcDbVertex
100
AcDb3dPolylineVertex
 10
8393634.254
 20
5720980.806
 30
134.1
 70
    32
  0
VERTEX
  5
8DD
330
8CB
100
AcDbEntity
  8
polilinie 3d po punktach
 62
     1
100
AcDbVertex
100
AcDb3dPolylineVertex
 10
8393650.057
 20
5720991.607
 30
134.543
 70
    32
  0
VERTEX
  5
8DE
330
8CB
100
AcDbEntity
  8
polilinie 3d po punktach
 62
     1
100
AcDbVertex
100
AcDb3dPolylineVertex
 10
8393655.13
 20
5720997.475
 30
134.595
 70
    32
  0
VERTEX
  5
8DF
330
8CB
100
AcDbEntity
  8
polilinie 3d po punktach
 62
     1
100
AcDbVertex
100
AcDb3dPolylineVertex
 10
8393656.441
 20
5720999.489
 30
134.59
 70
    32
  0
VERTEX
  5
8E0
330
8CB
100
AcDbEntity
  8
polilinie 3d po punktach
 62
     1
100
AcDbVertex
100
AcDb3dPolylineVertex
 10
8393659.473
 20
5721005.495
 30
134.628
 70
    32
  0
VERTEX
  5
8E1
330
8CB
100
AcDbEntity
  8
polilinie 3d po punktach
 62
     1
100
AcDbVertex
100
AcDb3dPolylineVertex
 10
8393661.673
 20
5721013.543
 30
134.807
 70
    32
  0
VERTEX
  5
8E2
330
8CB
100
AcDbEntity
  8
polilinie 3d po punktach
 62
     1
100
AcDbVertex
100
AcDb3dPolylineVertex
 10
8393661.592
 20
5721013.827
 30
134.898
 70
    32
  0
VERTEX
  5
8E3
330
8CB
100
AcDbEntity
  8
polilinie 3d po punktach
 62
     1
100
AcDbVertex
100
AcDb3dPolylineVertex
 10
8393662.41
 20
5721013.522
 30
134.768
 70
    32
  0
VERTEX
  5
8E4
330
8CB
100
AcDbEntity
  8
polilinie 3d po punktach
 62
     1
100
AcDbVertex
100
AcDb3dPolylineVertex
 10
8393662.282
 20
5721013.487
 30
134.822
 70
    32
  0
VERTEX
  5
8E5
330
8CB
100
AcDbEntity
  8
polilinie 3d po punktach
 62
     1
100
AcDbVertex
100
AcDb3dPolylineVertex
 10
8393659.913
 20
5721005.409
 30
134.668
 70
    32
  0
VERTEX
  5
8E6
330
8CB
100
AcDbEntity
  8
polilinie 3d po punktach
 62
     1
100
AcDbVertex
100
AcDb3dPolylineVertex
 10
8393657.015
 20
5720999.06
 30
134.61
 70
    32
  0
VERTEX
  5
8E7
330
8CB
100
AcDbEntity
  8
polilinie 3d po punktach
 62
     1
100
AcDbVertex
100
AcDb3dPolylineVertex
 10
8393655.659
 20
5720997.108
 30
134.56
 70
    32
  0
SEQEND
  5
8E8
330
8CB
100
AcDbEntity
  8
polilinie 3d po punktach
 62
     1
  0
POLYLINE
  5
8E9
330
1F
100
AcDbEntity
  8
polilinie 3d po punktach
 62
     1
100
AcDb3dPolyline
 66
     1
 10
0.0
 20
0.0
 30
0.0
 70
     8
  0
VERTEX
  5
8EA
330
8E9
100
AcDbEntity
  8
polilinie 3d po punktach
 62
     1
100
AcDbVertex
100
AcDb3dPolylineVertex
 10
8393630.297
 20
5720982.422
 30
134.94
 70
    32
  0
VERTEX
  5
8EB
330
8E9
100
AcDbEntity
  8
polilinie 3d po punktach
 62
     1
100
AcDbVertex
100
AcDb3dPolylineVertex
 10
8393621.795
 20
5720981.045
 30
135.02
 70
    32
  0
VERTEX
  5
8EC
330
8E9
100
AcDbEntity
  8
polilinie 3d po punktach
 62
     1
100
AcDbVertex
100
AcDb3dPolylineVertex
 10
8393612.743
 20
5720981.825
 30
135.11
 70
    32
  0
VERTEX
  5
8ED
330
8E9
100
AcDbEntity
  8
polilinie 3d po punktach
 62
     1
100
AcDbVertex
100
AcDb3dPolylineVertex
 10
8393602.377
 20
5720985.126
 30
135.2
 70
    32
  0
VERTEX
  5
8EE
330
8E9
100
AcDbEntity
  8
polilinie 3d po punktach
 62
     1
100
AcDbVertex
100
AcDb3dPolylineVertex
 10
8393594.706
 20
5720990.225
 30
135.3
 70
    32
  0
VERTEX
  5
8EF
330
8E9
100
AcDbEntity
  8
polilinie 3d po punktach
 62
     1
100
AcDbVertex
100
AcDb3dPolylineVertex
 10
8393587.555
 20
5720999.003
 30
135.42
 70
    32
  0
VERTEX
  5
8F0
330
8E9
100
AcDbEntity
  8
polilinie 3d po punktach
 62
     1
100
AcDbVertex
100
AcDb3dPolylineVertex
 10
8393583.17
 20
5721007.975
 30
135.53
 70
    32
  0
VERTEX
  5
8F1
330
8E9
100
AcDbEntity
  8
polilinie 3d po punktach
 62
     1
100
AcDbVertex
100
AcDb3dPolylineVertex
 10
8393577.613
 20
5721024.52
 30
135.69
 70
    32
  0
VERTEX
  5
8F2
330
8E9
100
AcDbEntity
  8
polilinie 3d po punktach
 62
     1
100
AcDbVertex
100
AcDb3dPolylineVertex
 10
8393571.324
 20
5721043.446
 30
135.91
 70
    32
  0
VERTEX
  5
8F3
330
8E9
100
AcDbEntity
  8
polilinie 3d po punktach
 62
     1
100
AcDbVertex
100
AcDb3dPolylineVertex
 10
8393564.719
 20
5721062.96
 30
136.1
 70
    32
  0
VERTEX
  5
8F4
330
8E9
100
AcDbEntity
  8
polilinie 3d po punktach
 62
     1
100
AcDbVertex
100
AcDb3dPolylineVertex
 10
8393562.976
 20
5721065.653
 30
136.1
 70
    32
  0
VERTEX
  5
8F5
330
8E9
100
AcDbEntity
  8
polilinie 3d po punktach
 62
     1
100
AcDbVertex
100
AcDb3dPolylineVertex
 10
8393558.938
 20
5721067.705
 30
136.09
 70
    32
  0
VERTEX
  5
8F6
330
8E9
100
AcDbEntity
  8
polilinie 3d po punktach
 62
     1
100
AcDbVertex
100
AcDb3dPolylineVertex
 10
8393550.161
 20
5721067.238
 30
136.142
 70
    32
  0
VERTEX
  5
8F7
330
8E9
100
AcDbEntity
  8
polilinie 3d po punktach
 62
     1
100
AcDbVertex
100
AcDb3dPolylineVertex
 10
8393533.888
 20
5721064.261
 30
136.151
 70
    32
  0
VERTEX
  5
8F8
330
8E9
100
AcDbEntity
  8
polilinie 3d po punktach
 62
     1
100
AcDbVertex
100
AcDb3dPolylineVertex
 10
8393532.535
 20
5721068.827
 30
136.21
 70
    32
  0
VERTEX
  5
8F9
330
8E9
100
AcDbEntity
  8
polilinie 3d po punktach
 62
     1
100
AcDbVertex
100
AcDb3dPolylineVertex
 10
8393547.246
 20
5721071.756
 30
136.207
 70
    32
  0
VERTEX
  5
8FA
330
8E9
100
AcDbEntity
  8
polilinie 3d po punktach
 62
     1
100
AcDbVertex
100
AcDb3dPolylineVertex
 10
8393555.653
 20
5721073.913
 30
136.15
 70
    32
  0
VERTEX
  5
8FB
330
8E9
100
AcDbEntity
  8
polilinie 3d po punktach
 62
     1
100
AcDbVertex
100
AcDb3dPolylineVertex
 10
8393558.172
 20
5721076.735
 30
136.18
 70
    32
  0
VERTEX
  5
8FC
330
8E9
100
AcDbEntity
  8
polilinie 3d po punktach
 62
     1
100
AcDbVertex
100
AcDb3dPolylineVertex
 10
8393559.061
 20
5721079.649
 30
136.18
 70
    32
  0
VERTEX
  5
8FD
330
8E9
100
AcDbEntity
  8
polilinie 3d po punktach
 62
     1
100
AcDbVertex
100
AcDb3dPolylineVertex
 10
8393556.648
 20
5721087.016
 30
136.12
 70
    32
  0
VERTEX
  5
8FE
330
8E9
100
AcDbEntity
  8
polilinie 3d po punktach
 62
     1
100
AcDbVertex
100
AcDb3dPolylineVertex
 10
8393556.46
 20
5721087.495
 30
136.13
 70
    32
  0
VERTEX
  5
8FF
330
8E9
100
AcDbEntity
  8
polilinie 3d po punktach
 62
     1
100
AcDbVertex
100
AcDb3dPolylineVertex
 10
8393550.372
 20
5721105.667
 30
136.04
 70
    32
  0
VERTEX
  5
900
330
8E9
100
AcDbEntity
  8
polilinie 3d po punktach
 62
     1
100
AcDbVertex
100
AcDb3dPolylineVertex
 10
8393544.292
 20
5721123.764
 30
135.96
 70
    32
  0
VERTEX
  5
901
330
8E9
100
AcDbEntity
  8
polilinie 3d po punktach
 62
     1
100
AcDbVertex
100
AcDb3dPolylineVertex
 10
8393538.024
 20
5721142.101
 30
135.87
 70
    32
  0
VERTEX
  5
902
330
8E9
100
AcDbEntity
  8
polilinie 3d po punktach
 62
     1
100
AcDbVertex
100
AcDb3dPolylineVertex
 10
8393531.609
 20
5721161.288
 30
135.78
 70
    32
  0
VERTEX
  5
903
330
8E9
100
AcDbEntity
  8
polilinie 3d po punktach
 62
     1
100
AcDbVertex
100
AcDb3dPolylineVertex
 10
8393525.304
 20
5721179.952
 30
135.7
 70
    32
  0
VERTEX
  5
904
330
8E9
100
AcDbEntity
  8
polilinie 3d po punktach
 62
     1
100
AcDbVertex
100
AcDb3dPolylineVertex
 10
8393519.089
 20
5721198.586
 30
135.71
 70
    32
  0
VERTEX
  5
905
330
8E9
100
AcDbEntity
  8
polilinie 3d po punktach
 62
     1
100
AcDbVertex
100
AcDb3dPolylineVertex
 10
8393512.78
 20
5721217.264
 30
135.83
 70
    32
  0
VERTEX
  5
906
330
8E9
100
AcDbEntity
  8
polilinie 3d po punktach
 62
     1
100
AcDbVertex
100
AcDb3dPolylineVertex
 10
8393506.533
 20
5721235.718
 30
135.91
 70
    32
  0
VERTEX
  5
907
330
8E9
100
AcDbEntity
  8
polilinie 3d po punktach
 62
     1
100
AcDbVertex
100
AcDb3dPolylineVertex
 10
8393500.307
 20
5721254.236
 30
135.97
 70
    32
  0
VERTEX
  5
908
330
8E9
100
AcDbEntity
  8
polilinie 3d po punktach
 62
     1
100
AcDbVertex
100
AcDb3dPolylineVertex
 10
8393494.152
 20
5721272.5
 30
135.98
 70
    32
  0
VERTEX
  5
909
330
8E9
100
AcDbEntity
  8
polilinie 3d po punktach
 62
     1
100
AcDbVertex
100
AcDb3dPolylineVertex
 10
8393488.145
 20
5721290.237
 30
135.92
 70
    32
  0
VERTEX
  5
90A
330
8E9
100
AcDbEntity
  8
polilinie 3d po punktach
 62
     1
100
AcDbVertex
100
AcDb3dPolylineVertex
 10
8393482.274
 20
5721307.861
 30
135.82
 70
    32
  0
VERTEX
  5
90B
330
8E9
100
AcDbEntity
  8
polilinie 3d po punktach
 62
     1
100
AcDbVertex
100
AcDb3dPolylineVertex
 10
8393476.218
 20
5721325.816
 30
135.76
 70
    32
  0
VERTEX
  5
90C
330
8E9
100
AcDbEntity
  8
polilinie 3d po punktach
 62
     1
100
AcDbVertex
100
AcDb3dPolylineVertex
 10
8393470.068
 20
5721344.352
 30
135.82
 70
    32
  0
VERTEX
  5
90D
330
8E9
100
AcDbEntity
  8
polilinie 3d po punktach
 62
     1
100
AcDbVertex
100
AcDb3dPolylineVertex
 10
8393463.573
 20
5721363.156
 30
135.86
 70
    32
  0
VERTEX
  5
90E
330
8E9
100
AcDbEntity
  8
polilinie 3d po punktach
 62
     1
100
AcDbVertex
100
AcDb3dPolylineVertex
 10
8393457.442
 20
5721381.581
 30
135.91
 70
    32
  0
VERTEX
  5
90F
330
8E9
100
AcDbEntity
  8
polilinie 3d po punktach
 62
     1
100
AcDbVertex
100
AcDb3dPolylineVertex
 10
8393451.163
 20
5721400.183
 30
136.0
 70
    32
  0
VERTEX
  5
910
330
8E9
100
AcDbEntity
  8
polilinie 3d po punktach
 62
     1
100
AcDbVertex
100
AcDb3dPolylineVertex
 10
8393444.781
 20
5721419.144
 30
136.01
 70
    32
  0
VERTEX
  5
911
330
8E9
100
AcDbEntity
  8
polilinie 3d po punktach
 62
     1
100
AcDbVertex
100
AcDb3dPolylineVertex
 10
8393438.542
 20
5721437.612
 30
135.92
 70
    32
  0
VERTEX
  5
912
330
8E9
100
AcDbEntity
  8
polilinie 3d po punktach
 62
     1
100
AcDbVertex
100
AcDb3dPolylineVertex
 10
8393432.176
 20
5721456.458
 30
135.86
 70
    32
  0
VERTEX
  5
913
330
8E9
100
AcDbEntity
  8
polilinie 3d po punktach
 62
     1
100
AcDbVertex
100
AcDb3dPolylineVertex
 10
8393426.147
 20
5721474.47
 30
135.82
 70
    32
  0
VERTEX
  5
914
330
8E9
100
AcDbEntity
  8
polilinie 3d po punktach
 62
     1
100
AcDbVertex
100
AcDb3dPolylineVertex
 10
8393419.919
 20
5721492.775
 30
135.82
 70
    32
  0
VERTEX
  5
915
330
8E9
100
AcDbEntity
  8
polilinie 3d po punktach
 62
     1
100
AcDbVertex
100
AcDb3dPolylineVertex
 10
8393413.733
 20
5721511.227
 30
135.89
 70
    32
  0
VERTEX
  5
916
330
8E9
100
AcDbEntity
  8
polilinie 3d po punktach
 62
     1
100
AcDbVertex
100
AcDb3dPolylineVertex
 10
8393407.661
 20
5721529.151
 30
135.93
 70
    32
  0
VERTEX
  5
917
330
8E9
100
AcDbEntity
  8
polilinie 3d po punktach
 62
     1
100
AcDbVertex
100
AcDb3dPolylineVertex
 10
8393401.601
 20
5721547.038
 30
135.99
 70
    32
  0
VERTEX
  5
918
330
8E9
100
AcDbEntity
  8
polilinie 3d po punktach
 62
     1
100
AcDbVertex
100
AcDb3dPolylineVertex
 10
8393395.573
 20
5721564.916
 30
136.04
 70
    32
  0
VERTEX
  5
919
330
8E9
100
AcDbEntity
  8
polilinie 3d po punktach
 62
     1
100
AcDbVertex
100
AcDb3dPolylineVertex
 10
8393389.272
 20
5721583.48
 30
136.1
 70
    32
  0
VERTEX
  5
91A
330
8E9
100
AcDbEntity
  8
polilinie 3d po punktach
 62
     1
100
AcDbVertex
100
AcDb3dPolylineVertex
 10
8393382.452
 20
5721602.033
 30
136.1
 70
    32
  0
VERTEX
  5
91B
330
8E9
100
AcDbEntity
  8
polilinie 3d po punktach
 62
     1
100
AcDbVertex
100
AcDb3dPolylineVertex
 10
8393376.987
 20
5721614.705
 30
135.88
 70
    32
  0
VERTEX
  5
91C
330
8E9
100
AcDbEntity
  8
polilinie 3d po punktach
 62
     1
100
AcDbVertex
100
AcDb3dPolylineVertex
 10
8393372.885
 20
5721622.03
 30
135.84
 70
    32
  0
VERTEX
  5
91D
330
8E9
100
AcDbEntity
  8
polilinie 3d po punktach
 62
     1
100
AcDbVertex
100
AcDb3dPolylineVertex
 10
8393370.809
 20
5721621.992
 30
135.72
 70
    32
  0
VERTEX
  5
91E
330
8E9
100
AcDbEntity
  8
polilinie 3d po punktach
 62
     1
100
AcDbVertex
100
AcDb3dPolylineVertex
 10
8393369.053
 20
5721619.892
 30
135.57
 70
    32
  0
VERTEX
  5
91F
330
8E9
100
AcDbEntity
  8
polilinie 3d po punktach
 62
     1
100
AcDbVertex
100
AcDb3dPolylineVertex
 10
8393367.046
 20
5721621.481
 30
135.58
 70
    32
  0
VERTEX
  5
920
330
8E9
100
AcDbEntity
  8
polilinie 3d po punktach
 62
     1
100
AcDbVertex
100
AcDb3dPolylineVertex
 10
8393367.85
 20
5721623.364
 30
135.69
 70
    32
  0
VERTEX
  5
921
330
8E9
100
AcDbEntity
  8
polilinie 3d po punktach
 62
     1
100
AcDbVertex
100
AcDb3dPolylineVertex
 10
8393368.176
 20
5721625.373
 30
135.74
 70
    32
  0
VERTEX
  5
922
330
8E9
100
AcDbEntity
  8
polilinie 3d po punktach
 62
     1
100
AcDbVertex
100
AcDb3dPolylineVertex
 10
8393367.048
 20
5721627.675
 30
135.79
 70
    32
  0
VERTEX
  5
923
330
8E9
100
AcDbEntity
  8
polilinie 3d po punktach
 62
     1
100
AcDbVertex
100
AcDb3dPolylineVertex
 10
8393362.315
 20
5721630.459
 30
135.75
 70
    32
  0
VERTEX
  5
924
330
8E9
100
AcDbEntity
  8
polilinie 3d po punktach
 62
     1
100
AcDbVertex
100
AcDb3dPolylineVertex
 10
8393355.841
 20
5721632.058
 30
135.75
 70
    32
  0
VERTEX
  5
925
330
8E9
100
AcDbEntity
  8
polilinie 3d po punktach
 62
     1
100
AcDbVertex
100
AcDb3dPolylineVertex
 10
8393354.551
 20
5721631.069
 30
135.66
 70
    32
  0
VERTEX
  5
926
330
8E9
100
AcDbEntity
  8
polilinie 3d po punktach
 62
     1
100
AcDbVertex
100
AcDb3dPolylineVertex
 10
8393354.065
 20
5721628.766
 30
135.647
 70
    32
  0
VERTEX
  5
927
330
8E9
100
AcDbEntity
  8
polilinie 3d po punktach
 62
     1
100
AcDbVertex
100
AcDb3dPolylineVertex
 10
8393351.151
 20
5721628.727
 30
135.621
 70
    32
  0
VERTEX
  5
928
330
8E9
100
AcDbEntity
  8
polilinie 3d po punktach
 62
     1
100
AcDbVertex
100
AcDb3dPolylineVertex
 10
8393351.284
 20
5721630.749
 30
135.686
 70
    32
  0
VERTEX
  5
929
330
8E9
100
AcDbEntity
  8
polilinie 3d po punktach
 62
     1
100
AcDbVertex
100
AcDb3dPolylineVertex
 10
8393350.766
 20
5721632.298
 30
135.68
 70
    32
  0
VERTEX
  5
92A
330
8E9
100
AcDbEntity
  8
polilinie 3d po punktach
 62
     1
100
AcDbVertex
100
AcDb3dPolylineVertex
 10
8393355.841
 20
5721632.058
 30
135.75
 70
    32
  0
SEQEND
  5
92B
330
8E9
100
AcDbEntity
  8
polilinie 3d po punktach
 62
     1
  0
POLYLINE
  5
92C
330
1F
100
AcDbEntity
  8
polilinie 3d po punktach
 62
     1
100
AcDb3dPolyline
 66
     1
 10
0.0
 20
0.0
 30
0.0
 70
     8
  0
VERTEX
  5
92D
330
92C
100
AcDbEntity
  8
polilinie 3d po punktach
 62
     1
100
AcDbVertex
100
AcDb3dPolylineVertex
 10
8393562.043
 20
5721062.048
 30
135.68
 70
    32
  0
VERTEX
  5
92E
330
92C
100
AcDbEntity
  8
polilinie 3d po punktach
 62
     1
100
AcDbVertex
100
AcDb3dPolylineVertex
 10
8393567.218
 20
5721046.593
 30
135.28
 70
    32
  0
VERTEX
  5
92F
330
92C
100
AcDbEntity
  8
polilinie 3d po punktach
 62
     1
100
AcDbVertex
100
AcDb3dPolylineVertex
 10
8393573.815
 20
5721028.873
 30
135.08
 70
    32
  0
VERTEX
  5
930
330
92C
100
AcDbEntity
  8
polilinie 3d po punktach
 62
     1
100
AcDbVertex
100
AcDb3dPolylineVertex
 10
8393579.481
 20
5721010.768
 30
134.82
 70
    32
  0
VERTEX
  5
931
330
92C
100
AcDbEntity
  8
polilinie 3d po punktach
 62
     1
100
AcDbVertex
100
AcDb3dPolylineVertex
 10
8393583.554
 20
5721000.242
 30
134.71
 70
    32
  0
VERTEX
  5
932
330
92C
100
AcDbEntity
  8
polilinie 3d po punktach
 62
     1
100
AcDbVertex
100
AcDb3dPolylineVertex
 10
8393589.282
 20
5720991.693
 30
134.41
 70
    32
  0
SEQEND
  5
933
330
92C
100
AcDbEntity
  8
polilinie 3d po punktach
 62
     1
  0
LWPOLYLINE
  5
934
102
{ACAD_REACTORS
330
938
102
}
330
1F
100
AcDbEntity
  8
!!!___t_MS-5_podpory_korpus_rys
  6
Continuous
 62
   252
 48
2.0
100
AcDbPolyline
 90
        5
 70
     0
 43
0.0
 10
8393629.301623462
 20
5720963.207600348
 42
0.9997143636410224
 10
8393629.802272175
 20
5720961.793616303
 10
8393637.437785998
 20
5720964.497119336
 42
0.9997143548273432
 10
8393636.937137287
 20
5720965.911103378
 10
8393629.301623464
 20
5720963.207600345
  0
LINE
  5
935
330
1F
100
AcDbEntity
  8
!!!___t_MS-5_osie
  6
DASHDOT
 62
   251
 48
0.25
100
AcDbLine
 10
8393642.4750365
 20
5720967.07628067
 30
0.0
 11
8393621.431355871
 21
5720959.625353891
 31
0.0
  0
MTEXT
  5
936
330
1F
100
AcDbEntity
  8
!!!___t_MS-5_osie
 62
     7
440
 33554559
100
AcDbMText
 10
8393621.238774693
 20
5720960.193680178
 30
0.0
 40
0.4999999999999999
 41
8.520650699734688
 46
0.0
 71
     1
 72
     5
  1
6+118,46
  7
G7Text
 11
0.9424754699465165
 21
0.3342753184862639
 31
0.0
 73
     1
 44
1.0
1001
ACAD
1000
ACAD_MTEXT_COLUMN_INFO_BEGIN
1070
    75
1070
     2
1070
    79
1070
     0
1070
    76
1070
     1
1070
    78
1070
     0
1070
    48
1040
8.520650699734688
1070
    49
1040
12.5
1070
    50
1070
     1
1040
0.0
1000
ACAD_MTEXT_COLUMN_INFO_END
  0
MTEXT
  5
937
330
1F
100
AcDbEntity
  8
!!!___t_MS-5_osie
 62
     1
440
 33554559
100
AcDbMText
 10
8393632.196307564
 20
5720963.659701701
 30
0.0
 40
0.3
 41
8.520650699734688
 46
0.0
 71
     1
 72
     5
  1
podpora F2
  7
G7Text
 11
0.9424754699465165
 21
0.3342753184862639
 31
0.0
 73
     1
 44
1.0
1001
ACAD
1000
ACAD_MTEXT_COLUMN_INFO_BEGIN
1070
    75
1070
     2
1070
    79
1070
     0
1070
    76
1070
     1
1070
    78
1070
     0
1070
    48
1040
8.520650699734688
1070
    49
1040
12.5
1070
    50
1070
     1
1040
0.0
1000
ACAD_MTEXT_COLUMN_INFO_END
  0
HATCH
  5
938
330
1F
100
AcDbEntity
  8
!!!___t_MS-5_podpory_korpus_rys
 62
   252
440
 33554467
100
AcDbHatch
 10
0.0
 20
0.0
 30
0.0
210
0.0
220
0.0
230
1.0
  2
ANSI33
 70
     0
 71
     1
 91
        1
 92
        1
 93
        4
 72
     2
 10
8393629.55214979
 20
5720962.500679838
 40
0.7500000325277675
 50
109.5138728983254
 51
289.4811367075351
 73
     1
 72
     1
 10
8393629.802272175
 20
5720961.793616303
 11
8393637.437785998
 21
5720964.497119336
 72
     2
 10
8393637.187259665
 20
5720965.204039843
 40
0.7500000309019376
 50
289.5138733957556
 51
109.4811361947034
 73
     1
 72
     1
 10
8393636.937137287
 20
5720965.911103378
 11
8393629.301623464
 21
5720963.207600345
 97
        1
330
934
 75
     1
 76
     1
 52
0.0
 41
0.05
 77
     0
 78
     2
 53
45.0
 43
0.0
 44
0.0
 45
-0.2245064030267288
 46
0.2245064030267289
 79
     0
 53
45.0
 43
0.2245064992457628
 44
0.0
 45
-0.2245064030267288
 46
0.2245064030267289
 79
     2
 49
0.15875
 49
-0.079375
 98
        0
1001
GradientColor1ACI
1070
     5
1001
GradientColor2ACI
1070
     2
1001
ACAD
1010
0.0
1020
0.0
1030
0.0
  0
ENDSEC
  0
SECTION
  2
OBJECTS
  0
DICTIONARY
  5
C
330
0
100
AcDbDictionary
281
     1
  3
ACAD_CIP_PREVIOUS_PRODUCT_INFO
350
216
  3
ACAD_COLOR
350
6B
  3
ACAD_DETAILVIEWSTYLE
350
21B
  3
ACAD_DGNDEFINITIONS
350
262
  3
ACAD_DWFDEFINITIONS
350
261
  3
ACAD_GROUP
350
D
  3
ACAD_IMAGE_DICT
350
939
  3
ACAD_LAYOUT
350
1A
  3
ACAD_MATERIAL
350
6A
  3
ACAD_MLEADERSTYLE
350
12D
  3
ACAD_MLINESTYLE
350
17
  3
ACAD_PDFDEFINITIONS
350
260
  3
ACAD_PLOTSETTINGS
350
19
  3
ACAD_PLOTSTYLENAME
350
E
  3
ACAD_SCALELIST
350
10C
  3
ACAD_SECTIONVIEWSTYLE
350
219
  3
ACAD_TABLESTYLE
350
7E
  3
ACAD_VISUALSTYLE
350
EF
  3
ACDB_RECOMPOSE_DATA
350
970
  3
AcDbVariableDictionary
350
5E
  0
SUN
  5
25E
330
EA
100
AcDbSun
 90
        1
290
     0
 63
     7
421
 16777215
 40
1.0
291
     1
 91
  2455826
 92
 54000000
292
     0
 70
     2
 71
   256
280
     1
  0
DICTIONARY
  5
1FF
330
2
100
AcDbDictionary
280
     1
281
     1
  3
ACAD_LAYERSTATES
360
200
  0
DICTIONARY
  5
26A
330
269
100
AcDbDictionary
280
     1
281
     1
  3
ADSK_XREC_LAYER_RECONCILED
360
26B
  0
DICTIONARY
  5
38F
330
38E
100
AcDbDictionary
280
     1
281
     1
  3
ADSK_XREC_LAYER_RECONCILED
360
390
  0
DICTIONARY
  5
392
330
391
100
AcDbDictionary
280
     1
281
     1
  3
ADSK_XREC_LAYER_RECONCILED
360
393
  0
DICTIONARY
  5
3C3
330
3C2
100
AcDbDictionary
280
     1
281
     1
  3
ACAD_SORTENTS
360
3C4
  0
XRECORD
  5
216
102
{ACAD_REACTORS
330
C
102
}
330
C
100
AcDbXrecord
280
     1
300
ACD
300
2013
300
ACD_F_S
  0
DICTIONARY
  5
6B
102
{ACAD_REACTORS
330
C
102
}
330
C
100
AcDbDictionary
281
     1
  0
DICTIONARY
  5
21B
102
{ACAD_REACTORS
330
C
102
}
330
C
100
AcDbDictionary
281
     1
  3
Metric50
350
21C
  0
DICTIONARY
  5
262
102
{ACAD_REACTORS
330
C
102
}
330
C
100
AcDbDictionary
281
     1
  0
DICTIONARY
  5
261
102
{ACAD_REACTORS
330
C
102
}
330
C
100
AcDbDictionary
281
     1
  0
DICTIONARY
  5
D
102
{ACAD_REACTORS
330
C
102
}
330
C
100
AcDbDictionary
281
     1
  0
DICTIONARY
  5
939
102
{ACAD_REACTORS
330
C
102
}
330
C
100
AcDbDictionary
281
     1
  0
DICTIONARY
  5
1A
102
{ACAD_REACTORS
330
C
102
}
330
C
100
AcDbDictionary
281
     1
  3
Model
350
22
  3
Układ1
350
D3
  3
Układ2
350
D7
  0
DICTIONARY
  5
6A
102
{ACAD_REACTORS
330
C
102
}
330
C
100
AcDbDictionary
281
     1
  3
ByBlock
350
ED
  3
ByLayer
350
EC
  3
Global
350
EE
  0
DICTIONARY
  5
12D
102
{ACAD_REACTORS
330
C
102
}
330
C
100
AcDbDictionary
281
     1
  3
Annotative
350
13B
  3
Standard
350
12E
  0
DICTIONARY
  5
17
102
{ACAD_REACTORS
330
C
102
}
330
C
100
AcDbDictionary
281
     1
  3
Standard
350
18
  0
DICTIONARY
  5
260
102
{ACAD_REACTORS
330
C
102
}
330
C
100
AcDbDictionary
281
     1
  0
DICTIONARY
  5
19
102
{ACAD_REACTORS
330
C
102
}
330
C
100
AcDbDictionary
281
     1
  0
ACDBDICTIONARYWDFLT
  5
E
102
{ACAD_REACTORS
330
C
102
}
330
C
100
AcDbDictionary
281
     1
  3
Normal
350
F
100
AcDbDictionaryWithDefault
340
F
  0
DICTIONARY
  5
10C
102
{ACAD_REACTORS
330
C
102
}
330
C
100
AcDbDictionary
281
     1
  3
A0
350
10D
  3
A1
350
1BE
  3
A2
350
1BF
  3
A3
350
1C0
  3
A4
350
1C1
  3
A5
350
1C2
  3
A6
350
1C3
  3
A7
350
1C4
  3
A8
350
1C5
  3
A9
350
1C6
  3
B0
350
1C7
  3
B1
350
1C8
  3
B2
350
1C9
  3
B3
350
1CA
  3
B4
350
1CB
  3
B5
350
1CC
  3
B6
350
1CD
  0
DICTIONARY
  5
219
102
{ACAD_REACTORS
330
C
102
}
330
C
100
AcDbDictionary
281
     1
  3
Metric50
350
21A
  0
DICTIONARY
  5
7E
102
{ACAD_REACTORS
330
C
102
}
330
C
100
AcDbDictionary
281
     1
  3
Standard
350
7F
  0
DICTIONARY
  5
EF
102
{ACAD_REACTORS
330
C
102
}
330
C
100
AcDbDictionary
281
     1
  3
2dWireframe
350
F5
  3
Basic
350
F4
  3
Brighten
350
FB
  3
ColorChange
350
FF
  3
Conceptual
350
F8
  3
Dim
350
FA
  3
EdgeColorOff
350
1E6
  3
Facepattern
350
FE
  3
Flat
350
F0
  3
FlatWithEdges
350
F1
  3
Gouraud
350
F2
  3
GouraudWithEdges
350
F3
  3
Hidden
350
F7
  3
JitterOff
350
1E4
  3
Linepattern
350
FD
  3
OverhangOff
350
1E5
  3
Realistic
350
F9
  3
Shaded
350
1F3
  3
Shaded with edges
350
1F2
  3
Shades of Gray
350
1EF
  3
Sketchy
350
1F0
  3
Thicken
350
FC
  3
Wireframe
350
F6
  3
X-Ray
350
1F1
  0
XRECORD
  5
970
102
{ACAD_REACTORS
330
C
102
}
330
C
100
AcDbXrecord
280
     1
 90
        1
330
7F
  0
DICTIONARY
  5
5E
102
{ACAD_REACTORS
330
C
102
}
330
C
100
AcDbDictionary
281
     1
  3
CANNOSCALE
350
146
  3
CMLEADERSTYLE
350
145
  3
CTABLESTYLE
350
84
  3
CVIEWDETAILSTYLE
350
227
  3
CVIEWSECTIONSTYLE
350
228
  3
DIMASSOC
350
5F
  3
HIDETEXT
350
63
  3
LAYEREVAL
350
1AE
  3
LAYERNOTIFY
350
1AF
  3
XCLIPFRAME
350
259
  0
DICTIONARY
  5
200
102
{ACAD_REACTORS
330
1FF
102
}
330
1FF
100
AcDbDictionary
281
     1
  0
XRECORD
  5
26B
102
{ACAD_REACTORS
330
26A
102
}
330
26A
100
AcDbXrecord
280
     1
290
     0
  0
XRECORD
  5
390
102
{ACAD_REACTORS
330
38F
102
}
330
38F
100
AcDbXrecord
280
     1
290
     0
  0
XRECORD
  5
393
102
{ACAD_REACTORS
330
392
102
}
330
392
100
AcDbXrecord
280
     1
290
     0
  0
SORTENTSTABLE
  5
3C4
102
{ACAD_REACTORS
330
3C3
102
}
330
3C3
100
AcDbSortentsTable
330
3C2
331
3C9
  5
3C6
331
3C6
  5
3C7
331
3C7
  5
3C8
331
3C8
  5
3C9
  0
ACDBDETAILVIEWSTYLE
  5
21C
102
{ACAD_REACTORS
330
21B
102
}
102
{ACAD_XDICTIONARY
360
93A
102
}
330
21B
100
AcDbModelDocViewStyle
 70
     0
  3
Metric50
290
     1
100
AcDbDetailViewStyle
 70
     0
 71
     0
 90
        3
 71
     1
340
11
 62
   256
 40
5.0
340
0
 62
   256
 40
5.0
300

 40
0.0
280
     1
 71
     2
340
16
 90
       25
 62
   256
 71
     3
340
11
 62
   256
 40
5.0
 90
        0
 40
15.0
 90
        1
300
%<\AcVar ViewDetailId>% (%<\AcVar ViewScale \f "%sn">%)
 71
     4
340
16
 90
       25
 62
   256
340
16
 90
       25
 62
   256
280
     0
  0
LAYOUT
  5
22
102
{ACAD_REACTORS
330
1A
102
}
102
{ACAD_XDICTIONARY
360
205
102
}
330
1A
100
AcDbPlotSettings
  1

  2
none_device
  4
ISO_A4_(210.00_x_297.00_MM)
  6

 40
7.5
 41
20.0
 42
7.5
 43
20.0
 44
210.0
 45
297.0
 46
11.54999923706055
 47
-13.65000009536743
 48
0.0
 49
0.0
140
0.0
141
0.0
142
1.0
143
8.704084754739808
 70
 11952
 72
     1
 73
     0
 74
     0
  7

 75
     0
 76
     0
 77
     2
 78
   300
147
0.1148885871608098
148
0.0
149
0.0
100
AcDbLayout
  1
Model
 70
     1
 71
     0
 10
0.0
 20
0.0
 11
12.0
 21
9.0
 12
0.0
 22
0.0
 32
0.0
 14
8393350.766
 24
5720947.960999999
 34
0.0
 15
8393671.262093415
 25
5721632.298
 35
136.21
146
0.0
 13
0.0
 23
0.0
 33
0.0
 16
1.0
 26
0.0
 36
0.0
 17
0.0
 27
1.0
 37
0.0
 76
     0
330
1F
331
EA
1001
ACAD_PSEXT
1000
None
1000
None
1000
Not applicable
1000
The layout will not be plotted unless a new plotter configuration name is selected.
1070
     0
  0
LAYOUT
  5
D3
102
{ACAD_REACTORS
330
1A
102
}
330
1A
100
AcDbPlotSettings
  1

  2
C:\Documents and Settings\basas\Application Data\Autodesk\AutoCAD 2005\R16.1\enu\plotters\Default Windows System Printer.pc3
  4

  6

 40
0.0
 41
0.0
 42
0.0
 43
0.0
 44
0.0
 45
0.0
 46
0.0
 47
0.0
 48
0.0
 49
0.0
140
0.0
141
0.0
142
1.0
143
1.0
 70
   688
 72
     0
 73
     0
 74
     5
  7

 75
    16
 76
     0
 77
     2
 78
   300
147
1.0
148
0.0
149
0.0
100
AcDbLayout
  1
Układ1
 70
     1
 71
     1
 10
0.0
 20
0.0
 11
12.0
 21
9.0
 12
0.0
 22
0.0
 32
0.0
 14
0.0
 24
0.0
 34
0.0
 15
0.0
 25
0.0
 35
0.0
146
0.0
 13
0.0
 23
0.0
 33
0.0
 16
1.0
 26
0.0
 36
0.0
 17
0.0
 27
1.0
 37
0.0
 76
     0
330
D2
  0
LAYOUT
  5
D7
102
{ACAD_REACTORS
330
1A
102
}
330
1A
100
AcDbPlotSettings
  1

  2
C:\Documents and Settings\basas\Application Data\Autodesk\AutoCAD 2005\R16.1\enu\plotters\Default Windows System Printer.pc3
  4

  6

 40
0.0
 41
0.0
 42
0.0
 43
0.0
 44
0.0
 45
0.0
 46
0.0
 47
0.0
 48
0.0
 49
0.0
140
0.0
141
0.0
142
1.0
143
1.0
 70
   688
 72
     0
 73
     0
 74
     5
  7

 75
    16
 76
     0
 77
     2
 78
   300
147
1.0
148
0.0
149
0.0
100
AcDbLayout
  1
Układ2
 70
     1
 71
     2
 10
0.0
 20
0.0
 11
12.0
 21
9.0
 12
0.0
 22
0.0
 32
0.0
 14
0.0
 24
0.0
 34
0.0
 15
0.0
 25
0.0
 35
0.0
146
0.0
 13
0.0
 23
0.0
 33
0.0
 16
1.0
 26
0.0
 36
0.0
 17
0.0
 27
1.0
 37
0.0
 76
     0
330
D6
  0
MATERIAL
  5
ED
102
{ACAD_REACTORS
330
6A
102
}
102
{ACAD_XDICTIONARY
360
1F9
102
}
330
6A
100
AcDbMaterial
  1
ByBlock
 72
     1
 73
     2
 78
     2
172
     2
176
     2
270
     2
274
     2
 94
       63
  0
MATERIAL
  5
EC
102
{ACAD_REACTORS
330
6A
102
}
102
{ACAD_XDICTIONARY
360
1F7
102
}
330
6A
100
AcDbMaterial
  1
ByLayer
 72
     1
 73
     2
 78
     2
172
     2
176
     2
270
     2
274
     2
 94
       63
  0
MATERIAL
  5
EE
102
{ACAD_REACTORS
330
6A
102
}
102
{ACAD_XDICTIONARY
360
173
102
}
330
6A
100
AcDbMaterial
  1
Global
 72
     1
 73
     2
 43
0.0007999999797903
 43
0.0
 43
0.0
 43
0.0
 43
0.0
 43
0.0007999999797903
 43
0.0
 43
0.0
 43
0.0
 43
0.0
 43
1.0
 43
0.0
 43
0.0
 43
0.0
 43
0.0
 43
1.0
 78
     2
172
     2
 49
0.0007999999797903
 49
0.0
 49
0.0
 49
0.0
 49
0.0
 49
0.0007999999797903
 49
0.0
 49
0.0
 49
0.0
 49
0.0
 49
1.0
 49
0.0
 49
0.0
 49
0.0
 49
0.0
 49
1.0
176
     2
142
0.0007999999797903
142
0.0
142
0.0
142
0.0
142
0.0
142
0.0007999999797903
142
0.0
142
0.0
142
0.0
142
0.0
142
1.0
142
0.0
142
0.0
142
0.0
142
0.0
142
1.0
270
     2
144
0.0007999999797903
144
0.0
144
0.0
144
0.0
144
0.0
144
0.0007999999797903
144
0.0
144
0.0
144
0.0
144
0.0
144
1.0
144
0.0
144
0.0
144
0.0
144
0.0
144
1.0
274
     2
 94
       63
1001
ACAD
1070
    -1
1070
     3
1070
     0
1000

1071
        0
1070
     0
  0
MLEADERSTYLE
  5
13B
102
{ACAD_REACTORS
330
12D
102
}
330
12D
100
AcDbMLeaderStyle
179
     2
170
     2
171
     1
172
     0
 90
        2
 40
0.0
 41
0.0
173
     1
 91
-1056964608
340
14
 92
       -2
290
     1
 42
2.0
291
     1
 43
8.0
  3
Standard
341
0
 44
4.0
300

342
11
174
     1
178
     1
175
     1
176
     0
 93
-1056964608
 45
4.0
292
     0
297
     0
 46
4.0
343
0
 94
-1056964608
 47
1.0
 49
1.0
140
1.0
293
     1
141
0.0
294
     1
177
     0
142
1.0
295
     0
296
     1
143
3.75
271
     0
272
     9
273
     9
  0
MLEADERSTYLE
  5
12E
102
{ACAD_REACTORS
330
12D
102
}
330
12D
100
AcDbMLeaderStyle
179
     2
170
     2
171
     1
172
     0
 90
        2
 40
0.0
 41
0.0
173
     1
 91
-1056964608
340
14
 92
       -2
290
     1
 42
2.0
291
     1
 43
8.0
  3
Standard
341
0
 44
4.0
300

342
11
174
     1
178
     1
175
     1
176
     0
 93
-1056964608
 45
4.0
292
     0
297
     0
 46
4.0
343
0
 94
-1056964608
 47
1.0
 49
1.0
140
1.0
293
     1
141
0.0
294
     1
177
     0
142
1.0
295
     0
296
     0
143
3.75
271
     0
272
     9
273
     9
  0
MLINESTYLE
  5
18
102
{ACAD_REACTORS
330
17
102
}
330
17
100
AcDbMlineStyle
  2
STANDARD
 70
     0
  3

 62
   256
 51
90.0
 52
90.0
 71
     2
 49
0.5
 62
   256
  6
BYLAYER
 49
-0.5
 62
   256
  6
BYLAYER
  0
ACDBPLACEHOLDER
  5
F
102
{ACAD_REACTORS
330
E
102
}
330
E
  0
SCALE
  5
10D
102
{ACAD_REACTORS
330
10C
102
}
330
10C
100
AcDbScale
 70
     0
300
1:1
140
1.0
141
1.0
290
     1
  0
SCALE
  5
1BE
102
{ACAD_REACTORS
330
10C
102
}
330
10C
100
AcDbScale
 70
     0
300
1:2
140
1.0
141
2.0
290
     0
  0
SCALE
  5
1BF
102
{ACAD_REACTORS
330
10C
102
}
330
10C
100
AcDbScale
 70
     0
300
1:4
140
1.0
141
4.0
290
     0
  0
SCALE
  5
1C0
102
{ACAD_REACTORS
330
10C
102
}
330
10C
100
AcDbScale
 70
     0
300
1:5
140
1.0
141
5.0
290
     0
  0
SCALE
  5
1C1
102
{ACAD_REACTORS
330
10C
102
}
330
10C
100
AcDbScale
 70
     0
300
1:8
140
1.0
141
8.0
290
     0
  0
SCALE
  5
1C2
102
{ACAD_REACTORS
330
10C
102
}
330
10C
100
AcDbScale
 70
     0
300
1:10
140
1.0
141
10.0
290
     0
  0
SCALE
  5
1C3
102
{ACAD_REACTORS
330
10C
102
}
330
10C
100
AcDbScale
 70
     0
300
1:16
140
1.0
141
16.0
290
     0
  0
SCALE
  5
1C4
102
{ACAD_REACTORS
330
10C
102
}
330
10C
100
AcDbScale
 70
     0
300
1:20
140
1.0
141
20.0
290
     0
  0
SCALE
  5
1C5
102
{ACAD_REACTORS
330
10C
102
}
330
10C
100
AcDbScale
 70
     0
300
1:30
140
1.0
141
30.0
290
     0
  0
SCALE
  5
1C6
102
{ACAD_REACTORS
330
10C
102
}
330
10C
100
AcDbScale
 70
     0
300
1:40
140
1.0
141
40.0
290
     0
  0
SCALE
  5
1C7
102
{ACAD_REACTORS
330
10C
102
}
330
10C
100
AcDbScale
 70
     0
300
1:50
140
1.0
141
50.0
290
     0
  0
SCALE
  5
1C8
102
{ACAD_REACTORS
330
10C
102
}
330
10C
100
AcDbScale
 70
     0
300
1:100
140
1.0
141
100.0
290
     0
  0
SCALE
  5
1C9
102
{ACAD_REACTORS
330
10C
102
}
330
10C
100
AcDbScale
 70
     0
300
2:1
140
2.0
141
1.0
290
     0
  0
SCALE
  5
1CA
102
{ACAD_REACTORS
330
10C
102
}
330
10C
100
AcDbScale
 70
     0
300
4:1
140
4.0
141
1.0
290
     0
  0
SCALE
  5
1CB
102
{ACAD_REACTORS
330
10C
102
}
330
10C
100
AcDbScale
 70
     0
300
8:1
140
8.0
141
1.0
290
     0
  0
SCALE
  5
1CC
102
{ACAD_REACTORS
330
10C
102
}
330
10C
100
AcDbScale
 70
     0
300
10:1
140
10.0
141
1.0
290
     0
  0
SCALE
  5
1CD
102
{ACAD_REACTORS
330
10C
102
}
330
10C
100
AcDbScale
 70
     0
300
100:1
140
100.0
141
1.0
290
     0
  0
ACDBSECTIONVIEWSTYLE
  5
21A
102
{ACAD_REACTORS
330
219
102
}
102
{ACAD_XDICTIONARY
360
93C
102
}
330
219
100
AcDbModelDocViewStyle
 70
     0
  3
Metric50
290
     1
100
AcDbSectionViewStyle
 70
     0
 71
     0
 90
      102
 71
     1
340
11
 62
   256
 40
5.0
340
0
340
0
 62
   256
 40
5.0
300
I, O, Q, S, X, Z
 40
10.0
 90
        0
 40
2.5
 90
        0
 71
     2
340
16
 90
       25
 62
   256
340
16
 90
       50
 62
   256
 40
5.0
 40
2.5
 40
5.0
 71
     3
340
11
 62
   256
 40
5.0
 90
        0
 40
15.0
 90
        1
300
%<\AcVar ViewSectionStartId>%-%<\AcVar ViewSectionEndId>% (%<\AcVar ViewScale \f "%sn">%)
 71
     4
 62
   256
 62
   257
300
ANSI31
 40
1.0
 90
        0
290
     0
290
     0
 90
        6
 40
0.0
 40
1.570796326794897
 40
0.2617993877991494
 40
1.308996938995747
 40
-0.2617993877991494
 40
1.832595714594046
  0
TABLESTYLE
  5
7F
102
{ACAD_REACTORS
330
7E
102
}
102
{ACAD_XDICTIONARY
360
93E
102
}
330
7E
100
AcDbTableStyle
  3
Standard
 70
     0
 71
     0
 40
1.5
 41
1.5
280
     0
281
     0
  7
Standard
140
4.5
170
     2
 62
     0
 63
   257
283
     0
 90
      512
 91
        0
  1

274
    -2
284
     1
 64
     0
275
    -2
285
     1
 65
     0
276
    -2
286
     1
 66
     0
277
    -2
287
     1
 67
     0
278
    -2
288
     1
 68
     0
279
    -2
289
     1
 69
     0
  7
Standard
140
6.0
170
     5
 62
     0
 63
   257
283
     0
 90
      512
 91
        0
  1

274
    -2
284
     1
 64
     0
275
    -2
285
     1
 65
     0
276
    -2
286
     1
 66
     0
277
    -2
287
     1
 67
     0
278
    -2
288
     1
 68
     0
279
    -2
289
     1
 69
     0
  7
Standard
140
4.5
170
     5
 62
     0
 63
   257
283
     0
 90
      512
 91
        0
  1

274
    -2
284
     1
 64
     0
275
    -2
285
     1
 65
     0
276
    -2
286
     1
 66
     0
277
    -2
287
     1
 67
     0
278
    -2
288
     1
 68
     0
279
    -2
289
     1
 69
     0
  0
VISUALSTYLE
  5
F5
102
{ACAD_REACTORS
330
EF
102
}
102
{ACAD_XDICTIONARY
360
940
102
}
330
EF
100
AcDbVisualStyle
  2
2dWireframe
 70
     4
177
     2
291
     0
 71
     0
176
     1
 72
     2
176
     1
 73
     1
176
     1
 90
        0
176
     1
 40
0.6
176
     1
 41
30.0
176
     1
 62
     5
 63
     7
421
 16777215
176
     1
 74
     1
176
     1
 91
        4
176
     1
 64
     7
176
     1
 65
   257
176
     1
 75
     1
176
     1
175
     1
176
     1
 42
1.0
176
     1
 92
        0
176
     1
 66
   257
176
     1
 43
1.0
176
     1
 76
     1
176
     1
 77
     6
176
     1
 78
     2
176
     1
 67
     7
176
     1
 79
     5
176
     1
170
     0
176
     1
171
     0
176
     1
290
     0
176
     1
 93
        1
176
     1
 44
0.0
176
     1
173
     0
176
     1
  0
VISUALSTYLE
  5
F4
102
{ACAD_REACTORS
330
EF
102
}
102
{ACAD_XDICTIONARY
360
942
102
}
330
EF
100
AcDbVisualStyle
  2
Basic
 70
     7
177
     2
291
     1
 71
     1
176
     1
 72
     0
176
     1
 73
     1
176
     1
 90
        0
176
     1
 40
0.6
176
     1
 41
30.0
176
     1
 62
     5
 63
     7
421
 16777215
176
     1
 74
     0
176
     1
 91
        4
176
     1
 64
     7
176
     1
 65
   257
176
     1
 75
     1
176
     1
175
     1
176
     1
 42
1.0
176
     1
 92
        8
176
     1
 66
     7
176
     1
 43
1.0
176
     1
 76
     1
176
     1
 77
     6
176
     1
 78
     2
176
     1
 67
     7
176
     1
 79
     5
176
     1
170
     0
176
     1
171
     0
176
     1
290
     0
176
     1
 93
        1
176
     1
 44
0.0
176
     1
173
     0
176
     1
  0
VISUALSTYLE
  5
FB
102
{ACAD_REACTORS
330
EF
102
}
102
{ACAD_XDICTIONARY
360
944
102
}
330
EF
100
AcDbVisualStyle
  2
Brighten
 70
    12
177
     2
291
     1
 71
     2
176
     1
 72
     2
176
     1
 73
     1
176
     1
 90
        0
176
     1
 40
0.6
176
     1
 41
30.0
176
     1
 62
     5
 63
     7
421
 16777215
176
     1
 74
     1
176
     1
 91
        4
176
     1
 64
     7
176
     1
 65
   257
176
     1
 75
     1
176
     1
175
     1
176
     1
 42
1.0
176
     1
 92
        8
176
     1
 66
     7
176
     1
 43
1.0
176
     1
 76
     1
176
     1
 77
     6
176
     1
 78
     2
176
     1
 67
     7
176
     1
 79
     5
176
     1
170
     0
176
     1
171
     0
176
     1
290
     0
176
     1
 93
        1
176
     1
 44
50.0
176
     1
173
     0
176
     1
  0
VISUALSTYLE
  5
FF
102
{ACAD_REACTORS
330
EF
102
}
102
{ACAD_XDICTIONARY
360
946
102
}
330
EF
100
AcDbVisualStyle
  2
ColorChange
 70
    16
177
     2
291
     1
 71
     2
176
     1
 72
     2
176
     1
 73
     3
176
     1
 90
        0
176
     1
 40
0.6
176
     1
 41
30.0
176
     1
 62
     5
 63
     8
421
  8421504
176
     1
 74
     1
176
     1
 91
        4
176
     1
 64
     7
176
     1
 65
   257
176
     1
 75
     1
176
     1
175
     1
176
     1
 42
1.0
176
     1
 92
        8
176
     1
 66
     8
424
  8421504
176
     1
 43
1.0
176
     1
 76
     1
176
     1
 77
     6
176
     1
 78
     2
176
     1
 67
     7
176
     1
 79
     5
176
     1
170
     0
176
     1
171
     0
176
     1
290
     0
176
     1
 93
        1
176
     1
 44
0.0
176
     1
173
     0
176
     1
  0
VISUALSTYLE
  5
F8
102
{ACAD_REACTORS
330
EF
102
}
102
{ACAD_XDICTIONARY
360
948
102
}
330
EF
100
AcDbVisualStyle
  2
Conceptual
 70
     9
177
     2
291
     0
 71
     3
176
     1
 72
     2
176
     1
 73
     1
176
     1
 90
        0
176
     1
 40
0.6
176
     1
 41
30.0
176
     1
 62
     5
 63
     7
421
 16777215
176
     1
 74
     2
176
     1
 91
        2
176
     1
 64
     7
176
     1
 65
   257
176
     1
 75
     1
176
     1
175
     1
176
     1
 42
40.0
176
     1
 92
        8
176
     1
 66
     7
176
     1
 43
1.0
176
     1
 76
     1
176
     1
 77
     6
176
     1
 78
     2
176
     1
 67
     7
176
     1
 79
     3
176
     1
170
     0
176
     1
171
     0
176
     1
290
     0
176
     1
 93
        1
176
     1
 44
0.0
176
     1
173
     0
176
     1
  0
VISUALSTYLE
  5
FA
102
{ACAD_REACTORS
330
EF
102
}
102
{ACAD_XDICTIONARY
360
94A
102
}
330
EF
100
AcDbVisualStyle
  2
Dim
 70
    11
177
     2
291
     1
 71
     2
176
     1
 72
     2
176
     1
 73
     1
176
     1
 90
        0
176
     1
 40
0.6
176
     1
 41
30.0
176
     1
 62
     5
 63
     7
421
 16777215
176
     1
 74
     1
176
     1
 91
        4
176
     1
 64
     7
176
     1
 65
   257
176
     1
 75
     1
176
     1
175
     1
176
     1
 42
1.0
176
     1
 92
        8
176
     1
 66
     7
176
     1
 43
1.0
176
     1
 76
     1
176
     1
 77
     6
176
     1
 78
     2
176
     1
 67
     7
176
     1
 79
     5
176
     1
170
     0
176
     1
171
     0
176
     1
290
     0
176
     1
 93
        1
176
     1
 44
-50.0
176
     1
173
     0
176
     1
  0
VISUALSTYLE
  5
1E6
102
{ACAD_REACTORS
330
EF
102
}
102
{ACAD_XDICTIONARY
360
94C
102
}
330
EF
100
AcDbVisualStyle
  2
EdgeColorOff
 70
    22
177
     2
291
     1
 71
     2
176
     0
 72
     2
176
     0
 73
     0
176
     0
 90
        0
176
     0
 40
0.6
176
     0
 41
30.0
176
     0
 62
     5
 63
     7
421
 16777215
176
     0
 74
     1
176
     0
 91
        4
176
     0
 64
     7
176
     0
 65
   257
176
     0
 75
     1
176
     0
175
     1
176
     0
 42
1.0
176
     0
 92
        8
176
     2
 66
     7
176
     0
 43
1.0
176
     0
 76
     1
176
     0
 77
     6
176
     0
 78
     2
176
     0
 67
     7
176
     0
 79
     5
176
     0
170
     0
176
     0
171
     0
176
     0
290
     0
176
     0
 93
        1
176
     0
 44
0.0
176
     0
173
     0
176
     0
  0
VISUALSTYLE
  5
FE
102
{ACAD_REACTORS
330
EF
102
}
102
{ACAD_XDICTIONARY
360
94E
102
}
330
EF
100
AcDbVisualStyle
  2
Facepattern
 70
    15
177
     2
291
     1
 71
     2
176
     1
 72
     2
176
     1
 73
     1
176
     1
 90
        0
176
     1
 40
0.6
176
     1
 41
30.0
176
     1
 62
     5
 63
     7
421
 16777215
176
     1
 74
     1
176
     1
 91
        4
176
     1
 64
     7
176
     1
 65
   257
176
     1
 75
     1
176
     1
175
     1
176
     1
 42
1.0
176
     1
 92
        8
176
     1
 66
     7
176
     1
 43
1.0
176
     1
 76
     1
176
     1
 77
     6
176
     1
 78
     2
176
     1
 67
     7
176
     1
 79
     5
176
     1
170
     0
176
     1
171
     0
176
     1
290
     0
176
     1
 93
        1
176
     1
 44
0.0
176
     1
173
     0
176
     1
  0
VISUALSTYLE
  5
F0
102
{ACAD_REACTORS
330
EF
102
}
102
{ACAD_XDICTIONARY
360
950
102
}
330
EF
100
AcDbVisualStyle
  2
Flat
 70
     0
177
     2
291
     1
 71
     2
176
     1
 72
     1
176
     1
 73
     1
176
     1
 90
        2
176
     1
 40
0.6
176
     1
 41
30.0
176
     1
 62
     5
 63
     7
421
 16777215
176
     1
 74
     0
176
     1
 91
        0
176
     1
 64
     7
176
     1
 65
   257
176
     1
 75
     1
176
     1
175
     1
176
     1
 42
1.0
176
     1
 92
        8
176
     1
 66
     7
176
     1
 43
1.0
176
     1
 76
     1
176
     1
 77
     6
176
     1
 78
     2
176
     1
 67
     7
176
     1
 79
     5
176
     1
170
     0
176
     1
171
     0
176
     1
290
     0
176
     1
 93
       13
176
     1
 44
0.0
176
     1
173
     0
176
     1
  0
VISUALSTYLE
  5
F1
102
{ACAD_REACTORS
330
EF
102
}
102
{ACAD_XDICTIONARY
360
952
102
}
330
EF
100
AcDbVisualStyle
  2
FlatWithEdges
 70
     1
177
     2
291
     1
 71
     2
176
     1
 72
     1
176
     1
 73
     1
176
     1
 90
        2
176
     1
 40
0.6
176
     1
 41
30.0
176
     1
 62
     5
 63
     7
421
 16777215
176
     1
 74
     1
176
     1
 91
        0
176
     1
 64
     7
176
     1
 65
   257
176
     1
 75
     1
176
     1
175
     1
176
     1
 42
1.0
176
     1
 92
        0
176
     1
 66
   257
176
     1
 43
1.0
176
     1
 76
     1
176
     1
 77
     6
176
     1
 78
     2
176
     1
 67
     7
176
     1
 79
     5
176
     1
170
     0
176
     1
171
     0
176
     1
290
     0
176
     1
 93
       13
176
     1
 44
0.0
176
     1
173
     0
176
     1
  0
VISUALSTYLE
  5
F2
102
{ACAD_REACTORS
330
EF
102
}
102
{ACAD_XDICTIONARY
360
954
102
}
330
EF
100
AcDbVisualStyle
  2
Gouraud
 70
     2
177
     2
291
     1
 71
     2
176
     1
 72
     2
176
     1
 73
     1
176
     1
 90
        2
176
     1
 40
0.6
176
     1
 41
30.0
176
     1
 62
     5
 63
     7
421
 16777215
176
     1
 74
     0
176
     1
 91
        0
176
     1
 64
     7
176
     1
 65
   257
176
     1
 75
     1
176
     1
175
     1
176
     1
 42
1.0
176
     1
 92
        0
176
     1
 66
     7
176
     1
 43
1.0
176
     1
 76
     1
176
     1
 77
     6
176
     1
 78
     2
176
     1
 67
     7
176
     1
 79
     5
176
     1
170
     0
176
     1
171
     0
176
     1
290
     0
176
     1
 93
       13
176
     1
 44
0.0
176
     1
173
     0
176
     1
  0
VISUALSTYLE
  5
F3
102
{ACAD_REACTORS
330
EF
102
}
102
{ACAD_XDICTIONARY
360
956
102
}
330
EF
100
AcDbVisualStyle
  2
GouraudWithEdges
 70
     3
177
     2
291
     1
 71
     2
176
     1
 72
     2
176
     1
 73
     1
176
     1
 90
        2
176
     1
 40
0.6
176
     1
 41
30.0
176
     1
 62
     5
 63
     7
421
 16777215
176
     1
 74
     1
176
     1
 91
        0
176
     1
 64
     7
176
     1
 65
   257
176
     1
 75
     1
176
     1
175
     1
176
     1
 42
1.0
176
     1
 92
        0
176
     1
 66
   257
176
     1
 43
1.0
176
     1
 76
     1
176
     1
 77
     6
176
     1
 78
     2
176
     1
 67
     7
176
     1
 79
     5
176
     1
170
     0
176
     1
171
     0
176
     1
290
     0
176
     1
 93
       13
176
     1
 44
0.0
176
     1
173
     0
176
     1
  0
VISUALSTYLE
  5
F7
102
{ACAD_REACTORS
330
EF
102
}
102
{ACAD_XDICTIONARY
360
958
102
}
330
EF
100
AcDbVisualStyle
  2
Hidden
 70
     6
177
     2
291
     0
 71
     1
176
     1
 72
     2
176
     1
 73
     2
176
     1
 90
        0
176
     1
 40
0.6
176
     1
 41
30.0
176
     1
 62
     5
 63
     7
421
 16777215
176
     1
 74
     2
176
     1
 91
        2
176
     1
 64
     7
176
     1
 65
   257
176
     1
 75
     2
176
     1
175
     1
176
     1
 42
40.0
176
     1
 92
        0
176
     1
 66
   257
176
     1
 43
1.0
176
     1
 76
     1
176
     1
 77
     6
176
     1
 78
     2
176
     1
 67
     7
176
     1
 79
     3
176
     1
170
     0
176
     1
171
     0
176
     1
290
     0
176
     1
 93
        1
176
     1
 44
0.0
176
     1
173
     0
176
     1
  0
VISUALSTYLE
  5
1E4
102
{ACAD_REACTORS
330
EF
102
}
102
{ACAD_XDICTIONARY
360
95A
102
}
330
EF
100
AcDbVisualStyle
  2
JitterOff
 70
    20
177
     2
291
     1
 71
     2
176
     0
 72
     2
176
     0
 73
     0
176
     0
 90
        0
176
     0
 40
0.6
176
     0
 41
30.0
176
     0
 62
     5
 63
     7
421
 16777215
176
     0
 74
     1
176
     0
 91
        4
176
     0
 64
     7
176
     0
 65
   257
176
     0
 75
     1
176
     0
175
     1
176
     0
 42
1.0
176
     0
 92
       10
176
     2
 66
     7
176
     0
 43
1.0
176
     0
 76
     1
176
     0
 77
     6
176
     0
 78
     2
176
     0
 67
     7
176
     0
 79
     5
176
     0
170
     0
176
     0
171
     0
176
     0
290
     0
176
     0
 93
        1
176
     0
 44
0.0
176
     0
173
     0
176
     0
  0
VISUALSTYLE
  5
FD
102
{ACAD_REACTORS
330
EF
102
}
102
{ACAD_XDICTIONARY
360
95C
102
}
330
EF
100
AcDbVisualStyle
  2
Linepattern
 70
    14
177
     2
291
     1
 71
     2
176
     1
 72
     2
176
     1
 73
     1
176
     1
 90
        0
176
     1
 40
0.6
176
     1
 41
30.0
176
     1
 62
     5
 63
     7
421
 16777215
176
     1
 74
     1
176
     1
 91
        4
176
     1
 64
     7
176
     1
 65
   257
176
     1
 75
     7
176
     1
175
     7
176
     1
 42
1.0
176
     1
 92
        8
176
     1
 66
     7
176
     1
 43
1.0
176
     1
 76
     1
176
     1
 77
     6
176
     1
 78
     2
176
     1
 67
     7
176
     1
 79
     5
176
     1
170
     0
176
     1
171
     0
176
     1
290
     0
176
     1
 93
        1
176
     1
 44
0.0
176
     1
173
     0
176
     1
  0
VISUALSTYLE
  5
1E5
102
{ACAD_REACTORS
330
EF
102
}
102
{ACAD_XDICTIONARY
360
95E
102
}
330
EF
100
AcDbVisualStyle
  2
OverhangOff
 70
    21
177
     2
291
     1
 71
     2
176
     0
 72
     2
176
     0
 73
     0
176
     0
 90
        0
176
     0
 40
0.6
176
     0
 41
30.0
176
     0
 62
     5
 63
     7
421
 16777215
176
     0
 74
     1
176
     0
 91
        4
176
     0
 64
     7
176
     0
 65
   257
176
     0
 75
     1
176
     0
175
     1
176
     0
 42
1.0
176
     0
 92
        9
176
     2
 66
     7
176
     0
 43
1.0
176
     0
 76
     1
176
     0
 77
     6
176
     0
 78
     2
176
     0
 67
     7
176
     0
 79
     5
176
     0
170
     0
176
     0
171
     0
176
     0
290
     0
176
     0
 93
        1
176
     0
 44
0.0
176
     0
173
     0
176
     0
  0
VISUALSTYLE
  5
F9
102
{ACAD_REACTORS
330
EF
102
}
102
{ACAD_XDICTIONARY
360
960
102
}
330
EF
100
AcDbVisualStyle
  2
Realistic
 70
     8
177
     2
291
     0
 71
     2
176
     1
 72
     3
176
     1
 73
     0
176
     1
 90
        2
176
     1
 40
0.6
176
     1
 41
30.0
176
     1
 62
     5
 63
     7
421
 16777215
176
     1
 74
     0
176
     1
 91
        0
176
     1
 64
     7
176
     1
 65
   257
176
     1
 75
     1
176
     1
175
     1
176
     1
 42
1.0
176
     1
 92
        8
176
     1
 66
   257
176
     1
 43
1.0
176
     1
 76
     1
176
     1
 77
     6
176
     1
 78
     2
176
     1
 67
     7
176
     1
 79
     3
176
     1
170
     0
176
     1
171
     0
176
     1
290
     0
176
     1
 93
       13
176
     1
 44
0.0
176
     1
173
     0
176
     1
  0
VISUALSTYLE
  5
1F3
102
{ACAD_REACTORS
330
EF
102
}
102
{ACAD_XDICTIONARY
360
962
102
}
330
EF
100
AcDbVisualStyle
  2
Shaded
 70
    27
177
     2
291
     0
 71
     2
176
     1
 72
     2
176
     1
 73
     1
176
     1
 90
        2
176
     1
 40
0.6
176
     1
 41
30.0
176
     1
 62
     5
 63
     7
421
 16777215
176
     1
 74
     0
176
     1
 91
        4
176
     1
 64
     7
176
     1
 65
   257
176
     1
 75
     1
176
     1
175
     1
176
     1
 42
1.0
176
     1
 92
        8
176
     1
 66
   257
176
     1
 43
1.0
176
     1
 76
     1
176
     1
 77
     6
176
     1
 78
     2
176
     1
 67
     8
425
  7895160
176
     1
 79
     3
176
     1
170
     0
176
     1
171
     0
176
     1
290
     0
176
     1
 93
        5
176
     1
 44
0.0
176
     1
173
     0
176
     1
  0
VISUALSTYLE
  5
1F2
102
{ACAD_REACTORS
330
EF
102
}
102
{ACAD_XDICTIONARY
360
964
102
}
330
EF
100
AcDbVisualStyle
  2
Shaded with edges
 70
    26
177
     2
291
     0
 71
     2
176
     1
 72
     2
176
     1
 73
     1
176
     1
 90
        2
176
     1
 40
0.6
176
     1
 41
30.0
176
     1
 62
     5
 63
     7
421
 16777215
176
     1
 74
     1
176
     1
 91
       10
176
     1
 64
     7
176
     1
 65
   257
176
     1
 75
     2
176
     1
175
     1
176
     1
 42
1.0
176
     1
 92
        8
176
     1
 66
   257
176
     1
 43
1.0
176
     1
 76
     1
176
     1
 77
     6
176
     1
 78
     2
176
     1
 67
     7
176
     1
 79
     3
176
     1
170
     0
176
     1
171
     0
176
     1
290
     0
176
     1
 93
        5
176
     1
 44
0.0
176
     1
173
     0
176
     1
  0
VISUALSTYLE
  5
1EF
102
{ACAD_REACTORS
330
EF
102
}
102
{ACAD_XDICTIONARY
360
966
102
}
330
EF
100
AcDbVisualStyle
  2
Shades of Gray
 70
    23
177
     2
291
     0
 71
     2
176
     1
 72
     2
176
     1
 73
     3
176
     1
 90
        0
176
     1
 40
0.6
176
     1
 41
30.0
176
     1
 62
     5
 63
     7
421
 16777215
176
     1
 74
     2
176
     1
 91
        2
176
     1
 64
     7
176
     1
 65
     7
176
     1
 75
     1
176
     1
175
     1
176
     1
 42
40.0
176
     1
 92
        8
176
     1
 66
     7
176
     1
 43
1.0
176
     1
 76
     1
176
     1
 77
     6
176
     1
 78
     2
176
     1
 67
     7
176
     1
 79
     3
176
     1
170
     0
176
     1
171
     0
176
     1
290
     0
176
     1
 93
        1
176
     1
 44
0.0
176
     1
173
     0
176
     1
  0
VISUALSTYLE
  5
1F0
102
{ACAD_REACTORS
330
EF
102
}
102
{ACAD_XDICTIONARY
360
968
102
}
330
EF
100
AcDbVisualStyle
  2
Sketchy
 70
    24
177
     2
291
     0
 71
     1
176
     1
 72
     2
176
     1
 73
     2
176
     1
 90
        0
176
     1
 40
0.6
176
     1
 41
30.0
176
     1
 62
     5
 63
     7
421
 16777215
176
     1
 74
     2
176
     1
 91
        2
176
     1
 64
     7
176
     1
 65
     7
176
     1
 75
     1
176
     1
175
     1
176
     1
 42
40.0
176
     1
 92
       11
176
     1
 66
     7
176
     1
 43
1.0
176
     1
 76
     1
176
     1
 77
     6
176
     1
 78
     2
176
     1
 67
     7
176
     1
 79
     6
176
     1
170
     0
176
     1
171
     0
176
     1
290
     0
176
     1
 93
        1
176
     1
 44
0.0
176
     1
173
     0
176
     1
  0
VISUALSTYLE
  5
FC
102
{ACAD_REACTORS
330
EF
102
}
102
{ACAD_XDICTIONARY
360
96A
102
}
330
EF
100
AcDbVisualStyle
  2
Thicken
 70
    13
177
     2
291
     1
 71
     2
176
     1
 72
     2
176
     1
 73
     1
176
     1
 90
        0
176
     1
 40
0.6
176
     1
 41
30.0
176
     1
 62
     5
 63
     7
421
 16777215
176
     1
 74
     1
176
     1
 91
        4
176
     1
 64
     7
176
     1
 65
   257
176
     1
 75
     1
176
     1
175
     1
176
     1
 42
1.0
176
     1
 92
       12
176
     1
 66
     7
176
     1
 43
1.0
176
     1
 76
     1
176
     1
 77
     6
176
     1
 78
     2
176
     1
 67
     7
176
     1
 79
     5
176
     1
170
     0
176
     1
171
     0
176
     1
290
     0
176
     1
 93
        1
176
     1
 44
0.0
176
     1
173
     0
176
     1
  0
VISUALSTYLE
  5
F6
102
{ACAD_REACTORS
330
EF
102
}
102
{ACAD_XDICTIONARY
360
96C
102
}
330
EF
100
AcDbVisualStyle
  2
Wireframe
 70
     5
177
     2
291
     0
 71
     0
176
     1
 72
     2
176
     1
 73
     0
176
     1
 90
        0
176
     1
 40
0.6
176
     1
 41
30.0
176
     1
 62
     5
 63
     7
421
 16777215
176
     1
 74
     1
176
     1
 91
        4
176
     1
 64
     7
176
     1
 65
   257
176
     1
 75
     1
176
     1
175
     1
176
     1
 42
1.0
176
     1
 92
        0
176
     1
 66
   257
176
     1
 43
1.0
176
     1
 76
     1
176
     1
 77
     6
176
     1
 78
     2
176
     1
 67
     7
176
     1
 79
     3
176
     1
170
     0
176
     1
171
     0
176
     1
290
     0
176
     1
 93
        1
176
     1
 44
0.0
176
     1
173
     0
176
     1
  0
VISUALSTYLE
  5
1F1
102
{ACAD_REACTORS
330
EF
102
}
102
{ACAD_XDICTIONARY
360
96E
102
}
330
EF
100
AcDbVisualStyle
  2
X-Ray
 70
    25
177
     2
291
     0
 71
     2
176
     1
 72
     2
176
     1
 73
     1
176
     1
 90
        1
176
     1
 40
0.5
176
     1
 41
30.0
176
     1
 62
     5
 63
     7
421
 16777215
176
     1
 74
     1
176
     1
 91
        0
176
     1
 64
     7
176
     1
 65
   257
176
     1
 75
     1
176
     1
175
     1
176
     1
 42
1.0
176
     1
 92
        8
176
     1
 66
     7
176
     1
 43
1.0
176
     1
 76
     1
176
     1
 77
     6
176
     1
 78
     2
176
     1
 67
     7
176
     1
 79
     3
176
     1
170
     0
176
     1
171
     0
176
     1
290
     0
176
     1
 93
       13
176
     1
 44
0.0
176
     1
173
     0
176
     1
  0
DICTIONARYVAR
  5
146
102
{ACAD_REACTORS
330
5E
102
}
330
5E
100
DictionaryVariables
280
     0
  1
1:1
  0
DICTIONARYVAR
  5
145
102
{ACAD_REACTORS
330
5E
102
}
330
5E
100
DictionaryVariables
280
     0
  1
Standard
  0
DICTIONARYVAR
  5
84
102
{ACAD_REACTORS
330
5E
102
}
330
5E
100
DictionaryVariables
280
     0
  1
Standard
  0
DICTIONARYVAR
  5
227
102
{ACAD_REACTORS
330
5E
102
}
330
5E
100
DictionaryVariables
280
     0
  1
Metric50
  0
DICTIONARYVAR
  5
228
102
{ACAD_REACTORS
330
5E
102
}
330
5E
100
DictionaryVariables
280
     0
  1
Metric50
  0
DICTIONARYVAR
  5
5F
102
{ACAD_REACTORS
330
5E
102
}
330
5E
100
DictionaryVariables
280
     0
  1
2
  0
DICTIONARYVAR
  5
63
102
{ACAD_REACTORS
330
5E
102
}
330
5E
100
DictionaryVariables
280
     0
  1
1
  0
DICTIONARYVAR
  5
1AE
102
{ACAD_REACTORS
330
5E
102
}
330
5E
100
DictionaryVariables
280
     0
  1
0
  0
DICTIONARYVAR
  5
1AF
102
{ACAD_REACTORS
330
5E
102
}
330
5E
100
DictionaryVariables
280
     0
  1
0
  0
DICTIONARYVAR
  5
259
102
{ACAD_REACTORS
330
5E
102
}
330
5E
100
DictionaryVariables
280
     0
  1
0
  0
DICTIONARY
  5
93A
330
21C
100
AcDbDictionary
280
     1
281
     1
  3
ACAD_XREC_ROUNDTRIP
360
93B
  0
DICTIONARY
  5
205
330
22
100
AcDbDictionary
280
     1
281
     1
  0
DICTIONARY
  5
1F9
330
ED
100
AcDbDictionary
280
     1
281
     1
  3
FBXASSET
360
1FA
  0
DICTIONARY
  5
1F7
330
EC
100
AcDbDictionary
280
     1
281
     1
  3
FBXASSET
360
1F8
  0
DICTIONARY
  5
173
330
EE
100
AcDbDictionary
280
     1
281
     1
  3
FBXASSET
360
1FB
  0
DICTIONARY
  5
93C
330
21A
100
AcDbDictionary
280
     1
281
     1
  3
ACAD_XREC_ROUNDTRIP
360
93D
  0
DICTIONARY
  5
93E
330
7F
100
AcDbDictionary
280
     1
281
     1
  3
ACAD_ROUNDTRIP_2008_TABLESTYLE_CELLSTYLEMAP
360
93F
  0
DICTIONARY
  5
940
330
F5
100
AcDbDictionary
280
     1
281
     1
  3
ACAD_XREC_ROUNDTRIP
360
941
  0
DICTIONARY
  5
942
330
F4
100
AcDbDictionary
280
     1
281
     1
  3
ACAD_XREC_ROUNDTRIP
360
943
  0
DICTIONARY
  5
944
330
FB
100
AcDbDictionary
280
     1
281
     1
  3
ACAD_XREC_ROUNDTRIP
360
945
  0
DICTIONARY
  5
946
330
FF
100
AcDbDictionary
280
     1
281
     1
  3
ACAD_XREC_ROUNDTRIP
360
947
  0
DICTIONARY
  5
948
330
F8
100
AcDbDictionary
280
     1
281
     1
  3
ACAD_XREC_ROUNDTRIP
360
949
  0
DICTIONARY
  5
94A
330
FA
100
AcDbDictionary
280
     1
281
     1
  3
ACAD_XREC_ROUNDTRIP
360
94B
  0
DICTIONARY
  5
94C
330
1E6
100
AcDbDictionary
280
     1
281
     1
  3
ACAD_XREC_ROUNDTRIP
360
94D
  0
DICTIONARY
  5
94E
330
FE
100
AcDbDictionary
280
     1
281
     1
  3
ACAD_XREC_ROUNDTRIP
360
94F
  0
DICTIONARY
  5
950
330
F0
100
AcDbDictionary
280
     1
281
     1
  3
ACAD_XREC_ROUNDTRIP
360
951
  0
DICTIONARY
  5
952
330
F1
100
AcDbDictionary
280
     1
281
     1
  3
ACAD_XREC_ROUNDTRIP
360
953
  0
DICTIONARY
  5
954
330
F2
100
AcDbDictionary
280
     1
281
     1
  3
ACAD_XREC_ROUNDTRIP
360
955
  0
DICTIONARY
  5
956
330
F3
100
AcDbDictionary
280
     1
281
     1
  3
ACAD_XREC_ROUNDTRIP
360
957
  0
DICTIONARY
  5
958
330
F7
100
AcDbDictionary
280
     1
281
     1
  3
ACAD_XREC_ROUNDTRIP
360
959
  0
DICTIONARY
  5
95A
330
1E4
100
AcDbDictionary
280
     1
281
     1
  3
ACAD_XREC_ROUNDTRIP
360
95B
  0
DICTIONARY
  5
95C
330
FD
100
AcDbDictionary
280
     1
281
     1
  3
ACAD_XREC_ROUNDTRIP
360
95D
  0
DICTIONARY
  5
95E
330
1E5
100
AcDbDictionary
280
     1
281
     1
  3
ACAD_XREC_ROUNDTRIP
360
95F
  0
DICTIONARY
  5
960
330
F9
100
AcDbDictionary
280
     1
281
     1
  3
ACAD_XREC_ROUNDTRIP
360
961
  0
DICTIONARY
  5
962
330
1F3
100
AcDbDictionary
280
     1
281
     1
  3
ACAD_XREC_ROUNDTRIP
360
963
  0
DICTIONARY
  5
964
330
1F2
100
AcDbDictionary
280
     1
281
     1
  3
ACAD_XREC_ROUNDTRIP
360
965
  0
DICTIONARY
  5
966
330
1EF
100
AcDbDictionary
280
     1
281
     1
  3
ACAD_XREC_ROUNDTRIP
360
967
  0
DICTIONARY
  5
968
330
1F0
100
AcDbDictionary
280
     1
281
     1
  3
ACAD_XREC_ROUNDTRIP
360
969
  0
DICTIONARY
  5
96A
330
FC
100
AcDbDictionary
280
     1
281
     1
  3
ACAD_XREC_ROUNDTRIP
360
96B
  0
DICTIONARY
  5
96C
330
F6
100
AcDbDictionary
280
     1
281
     1
  3
ACAD_XREC_ROUNDTRIP
360
96D
  0
DICTIONARY
  5
96E
330
1F1
100
AcDbDictionary
280
     1
281
     1
  3
ACAD_XREC_ROUNDTRIP
360
96F
  0
XRECORD
  5
93B
102
{ACAD_REACTORS
330
93A
102
}
330
93A
100
AcDbXrecord
280
     1
102
DISPLAYNAME
  1
Metric50
102
FLAGS
 90
        0
  0
XRECORD
  5
1FA
102
{ACAD_REACTORS
330
1F9
102
}
330
1F9
100
AcDbXrecord
280
     1
 70
     1
 90
429727718
  1
D62C5603-E3A1-4AEA-B7FB-FE5D8D0755AF
310
504B03040A0000080000CC70623B3DEE336E79000000790000001B0000006175746F6465736B2D64657369676E2D7061636B6167652E786D6C3C3F786D6C2076657273696F6E3D22312E302220656E636F64696E673D227574662D3822203F3E3C666F726D6174733E3C666F726D61743E687474703A2F2F736368656D612E
310
6175746F6465736B2E636F6D2F64657369676E2D7061636B6167652F323030393C2F666F726D61743E3C2F666F726D6174733E504B0304140006080800CC70623BD486FD9CA0000000F4000000130000005B436F6E74656E745F54797065735D2E786D6C7D8EC10E82300C865F65E91D8A1E8C310C0EEA1BF002731658846E
310
D98AC1B77784ABF1D8FE5FBFBF75BBCE937A534CCEB38643598122B6FEE978D0B0485F9C41B54DDD7D022595594E1A469170414C76A4D9A4D207E29CF43ECE46F218070CC6BECC4078ACAA135ACF422C856C0E68EA1BF5669944DDD7BCDE7B1F8E415D77AECB980613C2E4AC91FC167A2B244592486606FC29C8FD7F045B9A
310
EF7053A7E60B504B0304140006080800CC70623B853B8169EB0000007C01000008000000636F72652E786D6C8D90416EC3201045AF62CDB6C206821CC7C244919D9CA01740401C94182C03558F5F9C3852BBEB6A467FFE9B197D7EFC9E1EC5975982F5AE035262288C535E5B377690E21535501C055FBC8FBF6C503839990E
310
5619041F179FE64D52DE45E362569DD7661365082642A11EB9E920A89B99642953CC8E702F67A9EE7234257977194EC9EAE275C4EABCCF5EAD5940D4AC6F0E35A568B8F43562CD7046CD199FD07E60174276A7BE677B5EADB0E0D14EEFFB6A31321A0D82627C4084204C3F096B71DD52F6819B16635EADF63F509AF53FA164
310
5DDCD1EDDD17164090FCC8732078B56691CB33A85CD7DCC40F504B0304140006080800CC70623B55019EA25F0000007C00000007000000636E782E786D6C4DCB3B0E80201045D1AD90E915ED2CF8AC45050C11660C8261F98AB1B07AC9C97D42D718D865D3E909258CFD00CCE24AC6E326A164D74DC0B4128928FF32603847
310
2BA13128B1252AC747C6BAB984FC68F0B87FE8960A5C09FE86CFB69FBA01504B0304140006080800CC70623BDBABAAF470010000D40300000C0000006662782F636F72652E786D6CC553D16E823014FD95A6AF4B694182CC941A83FA05FB810A9511A125A5257EFE2E82712ECEB8A7F100CD39F7F69E734AF9FADC366850B6
310
AF8DCE7018308C942E4C59EB2AC3DE1D498AD15A706B8CFB56869196ADCAF00863C12B6B7C374385D14E6907A836A59A41D9F7CA615434B0C8705F7CAA5606D23BA8E84F41278B93AC54100640439DE0BDB320004D43C63716C7C399D30917DCFBBA9CD9BA8469F5B156168B24CED3F7248AC8769F27244EB73B92EED8862C
310
B7F13E0C179B3C8F979C8ECD82BBBABDAA2BAC924E9558448CBD9330242CFA08E3154B5651FCC6D215639C8EE5774DBE2B5F6CF2B5768B68963BB5F5588420E442FC700B1139D4CB01F450C1E918227C2E09DF070D8140C84E1E9AAB8F1340832A9CB13130A5F1376A908D57309505ECF2A0DF179C4E9D30F5B239B87E3823
310
7A79C6F31DE1A8A5AEC08474B03C7837EAE4938639B44E5932B833D2C6B6B279CDC613877FA26EE21F4A2A4C63EC7F29A2F301D1F9F7A0E37D145F504B0304140006080800CC70623B9C113CC27E0000009D0000000B0000006662782F636E782E786D6C4DCCDF0A83201C86E15B91DFB94BFB330DD428C8FB886521330DA7
310
6397BF1A1DECE883878F57749FCDA1B7892F1BBC047A23808C7F84D9FA55424E0BE6803A256208E9EF06C84F9B91703228B1C690F78B66B34CD9A5439DF5CF0BFBF65E35BCA1B8D6A5C6F540381E886698B5741C695F9503EBA150A2F8958E3DC3EA0B504B0304140006080800CC70623B7DF2F77C2A010000120200003100
310
00006662782F41393633353835312D344632462D344230382D423046372D3739314545314133324237412F636F72652E786D6C8D51DB8EC22014FC15C2939B0D2DB4B45643319AE817EC0F6041255A68B86CFCFC856D4D76DF7CE190393373060EDB3DC707F856CE6B6B7A480A0C81328395DA5C7B18C3057510EC3873D686
310
3F34088C18550F330C39BB3A1BA7051AAC09CA84841A2BD5020AEF55806078A44B0FFD7053A328440C89E1EFC52486BBB8AA8214A99D789CF9E05200300FC927E4FB4D5B375D43103D5527440FB843077C5AA3F5861C8F645F5787F59E95B390B318B55CE45AA638FAA2957BD7248B390B7A7CC51F9C124149C82B8C378810
310
84AB2F42B7B8DD56F413775B8C5999E9FF4471926F8AA236A1AE96B8B3CC434E5839373893369E1FAF30EA395917409EB7F26AF8801C171837A4A6AC9C89E9F9C9B1A58BA30FD6A5EF5DDDCF894B9AD9B6A59C957943A9FCAE2FD5BC4DFE03504B0304140006080800CC70623BAD7543B64E01000033030000300000006662
310
782F41393633353835312D344632462D344230382D423046372D3739314545314133324237412F636E782E786D6CD593CD6EC32010845F0571AD6CE3D48AD20813A9873E410FBD12D82434182C7EAAE6EDBB2424CD25871E7B41D6EC30B3FA84F9E67BB2E40B4234DE8DB46F1925E094D7C6ED479AD3AE5951B2113C789FEE
310
6C943839C1488B4C05DF079FE72A69D8C96C13AAD6B8631503449F83828872B949AC57D26200B826A308D316B4064D6E46FCDA41C05550DC9E483A00797BFD207EFB092A45DE9514C1BBD22178396BD39D891265658C238DEA00936C654E5E433CB65A26D9F6EDB5EBC14EBF49A45CB856E66048291F6939A9A81BB5C89177
310
38143CA680F4AA299D66A042CEB3354A2684DC9D8D178FE0D9B8B41CAAD720F880EE7EF93C0C18769E099ECC04D5A102C8049A8A05632F4DDF376CF1DE0F6BB65C2F8627B65A33C6BB62177CEBBDAD973006829F89F22E814B54F4BC2BE347F8AA8F681390B50FA73F804400B5F542E796F19FF974E7F78DB802FE05E20750
310
4B0304140006080800CC70623BE75B7789680500003C100000340000006662782F41393633353835312D344632462D344230382D423046372D3739314545314133324237412F6F626A656374732E786D6CAD575B8F9B3818FD2B887D06C22499CB8AA1CA655245D5B455A356FB305264C061D8018C6C3393D95FBFC7600890
310
A4CD5EF210B0B1BFEBF98E3F7B1FF6596ABC522E1296DF9BAE3D320D9A872C4AF2F8DE2CE5CEBA358D0FBEC719939D65A691938CDE9B6ADAF4BD98B3B2D05311DD91329583D9D5FC0F438434A7A611A644887B5384CF34233629258BA878B12322891DEFF6B66BD70BFB62634E8AE781D082709A4B588AF91C528CDA28B73F
310
1C998EEF39EABBEFA97FBD6A7C7E9553F9D3D79FE442923C3C523610337627CB87ABE99D359D4CC6D6E4FACAB5E6ABF9D2726FC6A3C5F56271377BB88362213924694B38DD99FE47C48627A1E7D49F5A8BB5E1A74C0A599ED3B0F21F1E56366B89112D681E218F0915D0D6F17AD41FBA2A369DCF6335D62ABBD39779D5DDD1
310
11D4D8DE3CBB96B2E04FB8202E41051754A1AA8E8F76B4C6DFE810B580B1547F4B84911149794252234D024EF8BBE963A95AE27B3D310A9D5C215C7960FAEE415ED75694C6AFB17BCACA5D99A60A9AA65F217B0BFC53292ACB92BF283FAD0D3621576592CB5BED907C2FA8E9DF794E35E97BEA31BED21FEB401ABB94C44839
310
DCACBF0E1C5DA8DA5B2F4DFFD32AD86F543D9E565E7056502E157C00AD2671CD534549AB752FCA9CDA00677A313F04E51B22FF19E57B300579E3C97EB29F682D92935CEC18CF901B7B54FD8C51F362B56FC72FE0B3C1EAE335EDCCBF5AEC39ADB17DC238973F804BA5E6F6BFE7AF1FB32E523BE9F3BD571418E3631DCA4D48
310
5250CF639223210A9446CA30052EDF057BD35F8329C1ECD84552BF0DC8D18BE7BCE23BFE6BD960AB4A7DE79923A103BEBD80F911CBAA2C60DB19B01CF164A5583B772EE6D3FFA56666CBCDA74DC97724A48F9A58967497E489C4D979006FD7A05E227A1EBDD0F737C623387A9C844D3709995625106D157315F8B8392CD4E0
310
A0B9A720C4BE9829CEF37EA1E13111214D53925356365ADA634861B52519DD27A00AEB808EAF0628E6F435519D446F45CF2C9CF5214F0A15B2F6D06B79DA3EE3CBF7F56780D2F4E7EF73A0F5E5B02A38D07DC852C6B7C1FBB6664213E0C39E3EBA7FF4E1AD23EA2829407C85E586727488B751B2DB9502BC7B228A3FD68B6E
310
A65A22397E690AA8D158D7E404EC8CDA235CC3B7D1898680131CEC2CDF2638C65196279577750F15884AEE19F94199155B92B13297978469D4F8D358DF0AEF7631E28DC8F0D9F437D5D39A83B2231A1D52D543813A824EF8D44BCFF2FA6A31BD1E8DAD87F1CCB526B3879935BF59CDADD5C37479BB1CDD4CA7B3556B516589
310
EF352754B706114D9C885EC9131DE6EFEB43D99AFE2391C2F958179413D7CFEF6B1B6DB1E7600F00DE6E5C67454A339A4BA2E0FBA85ED26F045D454F463DBFCE484C2F90F2E5E3666003662ED8F755951A7D1BECD5B30B550B2785C8E7320B7292A4838DDA71BBC863ED7613CAF659337A3354231D4FF4A182A54904C2898C
310
98B28C4AD0CE056CCF332A80986E571EE9DBC305BB5FEB7E509220A58D25CF042D712A806AC0AD0C657FDEF80D2D9CEAA2EE4D1C76F60BFE74219A06527D6F82DF6412526107381E55E353090704D085B52408A8913C4ED159D79BDA71BB4BC506F4831350EB6F975CD22D69BF7AC49B91A2C0A9DDA3D5CA36AD20FC478E37
310
E61844E2352865EBCB61A275A65283CAAA9DD27703B4102F5AF51EF5F573B75CBB5AD38BC845F7A49F82A0966A49C2E3EA5EA0ECD326CD965F1DB402C6FA8B51A4658C5C5E2EC9E214602E55810345408596591009A82E7E7FFACA19EEA299B14A0081A705CB3296EBC14CDF658DCD336EA6D1136881AAEB87B81AB9EE53D5
310
F5EB8BC8362082DA24122F98680A4E7930C01A0079749CEA14382A0783E5EBA5A10F8C098456A03D6A4AEB6BB881E2513747552A5DB22C7EDAF83BD5528081A365F7FF06504B0304140006080000CC70623B000000000000000000000000350000006662782F41393633353835312D344632462D344230382D423046372D37
310
39314545314133324237412F76657274696365732E62696E504B0304140006080800CC70623BF270F1330600000004000000360000006662782F41393633353835312D344632462D344230382D423046372D3739314545314133324237412F747269616E676C65732E62696E636660600000504B0304140006080000CC7062
310
3B000000000000000000000000370000006662782F41393633353835312D344632462D344230382D423046372D3739314545314133324237412F617474726962757465732E62696E504B0304140006080800CC70623B08DA0BD19000000041010000360000006662782F41393633353835312D344632462D344230382D4230
310
46372D3739314545314133324237412F6469726563746F72792E786D6C858F410AC3201045AF22B36F53E9A60B35CBEEBAE80D244E44489C6234F4F835464A48035D0DF398FF9F8AF63D0E6CC63039F212F8F9020C7D47C6792B21C5FE7403D62A1188E2E60C98D7234A5830286103A55745067B9D86B8A3CF9C7F90C11DE6
310
07FB144396D7B6A82D282E9A152AD114D5EF2CB866EEE831B8EEA07A7BB5A8D7D61A2BAAEB7FD5F70921FF497D00504B0304140006080800CC70623BEDD1DC58FD000000A00100003B0000006662782F41393633353835312D344632462D344230382D423046372D3739314545314133324237412F7265736F75726365732F
310
636F72652E786D6C8D504B6E833010BD0A9A6D65B00922041947112427E8052C33A156828DFCA97AFC9A40A576D7CDCCE87D344F8F9FBFE667F689CE6B6B3A6039850C8DB2A336530731DC4903D95970676DF82583CCC8193B5861107C72362E3BA4AC096842428D1D7107A5F7182053CF7474E0D507CE32973124857FE48B
310
540F3961CEF244279DE03EB81420DB9EAC1384436FA353E879B1B182C7A8C75DA3C7F453DF353A1075D537A7BA6464B8F535A99AE14A9A2BBD90E350DD183B5CFABE3AF262350B1EF4FC9351399401471025A527C218A1E53BAB5A5AB765F5469B96525EACF23FA6B88CFF34456DC2A1DCE36E360F82A5202F42F062ED2BAD
310
579969AFDD8A6F504B010214000A0000080000CC70623B3DEE336E79000000790000001B00000000000000000000000000000000006175746F6465736B2D64657369676E2D7061636B6167652E786D6C504B01021400140006080800CC70623BD486FD9CA0000000F40000001300000000000000000000000000B20000005B
310
436F6E74656E745F54797065735D2E786D6C504B01021400140006080800CC70623B853B8169EB0000007C010000080000000000000000000000000083010000636F72652E786D6C504B01021400140006080800CC70623B55019EA25F0000007C000000070000000000000000000000000094020000636E782E786D6C504B
310
01021400140006080800CC70623BDBABAAF470010000D40300000C00000000000000000000000000180300006662782F636F72652E786D6C504B01021400140006080800CC70623B9C113CC27E0000009D0000000B00000000000000000000000000B20400006662782F636E782E786D6C504B01021400140006080800CC70
310
623B7DF2F77C2A010000120200003100000000000000000000000000590500006662782F41393633353835312D344632462D344230382D423046372D3739314545314133324237412F636F72652E786D6C504B01021400140006080800CC70623BAD7543B64E010000330300003000000000000000000000000000D2060000
310
6662782F41393633353835312D344632462D344230382D423046372D3739314545314133324237412F636E782E786D6C504B01021400140006080800CC70623BE75B7789680500003C10000034000000000000000000000000006E0800006662782F41393633353835312D344632462D344230382D423046372D3739314545
310
314133324237412F6F626A656374732E786D6C504B01021400140006080000CC70623B0000000000000000000000003500000000000000000000000000280E00006662782F41393633353835312D344632462D344230382D423046372D3739314545314133324237412F76657274696365732E62696E504B01021400140006
310
080800CC70623BF270F133060000000400000036000000000000000000000000007B0E00006662782F41393633353835312D344632462D344230382D423046372D3739314545314133324237412F747269616E676C65732E62696E504B01021400140006080000CC70623B0000000000000000000000003700000000000000
310
000000000000D50E00006662782F41393633353835312D344632462D344230382D423046372D3739314545314133324237412F617474726962757465732E62696E504B01021400140006080800CC70623B08DA0BD1900000004101000036000000000000000000000000002A0F00006662782F41393633353835312D344632
310
462D344230382D423046372D3739314545314133324237412F6469726563746F72792E786D6C504B01021400140006080800CC70623BEDD1DC58FD000000A00100003B000000000000000000000000000E1000006662782F41393633353835312D344632462D344230382D423046372D3739314545314133324237412F7265
310
736F75726365732F636F72652E786D6C504B0506000000000E000E0080040000641100000000
  0
XRECORD
  5
1F8
102
{ACAD_REACTORS
330
1F7
102
}
330
1F7
100
AcDbXrecord
280
     1
 70
     1
 90
429727718
  1
30362254-06B7-45E0-A893-8CFA70E3D6BC
310
504B03040A0000080000CC70623B3DEE336E79000000790000001B0000006175746F6465736B2D64657369676E2D7061636B6167652E786D6C3C3F786D6C2076657273696F6E3D22312E302220656E636F64696E673D227574662D3822203F3E3C666F726D6174733E3C666F726D61743E687474703A2F2F736368656D612E
310
6175746F6465736B2E636F6D2F64657369676E2D7061636B6167652F323030393C2F666F726D61743E3C2F666F726D6174733E504B0304140006080800CC70623BD486FD9CA0000000F4000000130000005B436F6E74656E745F54797065735D2E786D6C7D8EC10E82300C865F65E91D8A1E8C310C0EEA1BF002731658846E
310
D98AC1B77784ABF1D8FE5FBFBF75BBCE937A534CCEB38643598122B6FEE978D0B0485F9C41B54DDD7D022595594E1A469170414C76A4D9A4D207E29CF43ECE46F218070CC6BECC4078ACAA135ACF422C856C0E68EA1BF5669944DDD7BCDE7B1F8E415D77AECB980613C2E4AC91FC167A2B244592486606FC29C8FD7F045B9A
310
EF7053A7E60B504B0304140006080800CC70623B1EC5D7A3EB0000007C01000008000000636F72652E786D6C8D90416EC3201045AF82665B6103C6756C6122AB4D4ED00B204C5C94182C03558F5F9C3852BBEB6A467FFE9B197D71FC9E6FE8CBACC17AD7032D0820E3B41FAD9B7A48F1820F808E52ACDEC75F36404ECDA687
310
4D0629A6D5A76597B477D1B89855E747B38B2A041301E95B6E7A08FAD3CCAA50296647B8168BD2573599823EBB0CA76447F43862C7BCCF5EAC59410E4DDD9C7973C2755553CCCFA4C603E3040F1565ED3B1FDE4E432BCA0D9622DAF9795FAF464533826484B498524CD807E51D79ED187F21878E10516EF63F505AC67F42C9
310
BA58B1FDDD071640D2FCC87D2045B96591CB3DA85CB7DCE40F504B0304140006080800CC70623B55019EA25F0000007C00000007000000636E782E786D6C4DCB3B0E80201045D1AD90E915ED2CF8AC45050C11660C8261F98AB1B07AC9C97D42D718D865D3E909258CFD00CCE24AC6E326A164D74DC0B4128928FF32603847
310
2BA13128B1252AC747C6BAB984FC68F0B87FE8960A5C09FE86CFB69FBA01504B0304140006080800CC70623B8C9102E971010000D40300000C0000006662782F636F72652E786D6CC5535B6E833010BC8AE5DF0A6C08340F1947A84D4ED00B38C6A128602363A31CBFCB234A53A551FA553EC09AD9F5CE8C31DB9E9B1AF5CA
310
7695D1198E428A91D2D214952E33ECDD315861B4E5CC1AE3BE9561A445A3323CC098B3D21ADFCE9034DA29ED00D5A6503328BA4E398C640D8B0C77F253352214DE4145770A5B214FA2546114020D759C75CE8200340D19DE981F0F6746269C33EFAB6266AB02A655C74A59CCF365BADC27CB5D902ED22848F6340DF238A141
310
BE88E2F57B92BFEDF23523433367AE6A2EEAA455C2A902F398D2751045018D3FA264435F3771F242571B4A1919CA6F9A7C5B3CD9E42BED16F12C776AEB308F40C848FC700B1139D4891EF410CEC810227CC6846F8386402064270EF5C5C709A05E49676C024C61FC95EA45ED154CA5211D1FF4FB8291A913A68E9B83EBBB33
310
E2A7673CDE118E5AE8124C0807CB8377834E366998436B950D7A7746DAD846D4CFD978E0F04FD455FC5D49D2D4C6FE9722321F10997F0F32DC47FE05504B0304140006080800CC70623BFFEA85907E0000009D0000000B0000006662782F636E782E786D6C4DCCD10A83201886E15B91FFDC95D95A811AB6F23E625948A6C3
310
E9D8E5AF46073BFAE0E1E365ED67B3E8ADC3CB78C7815C7240DA3DFC64DCC221C519D7805AC182F7F1EF06C88D9BE6703008B6049F9E274D7A1E938DBB5AE3D6131B2589BA0D3D965551E0B2EA732C9B9A624AAEB41E3A557677029960D9AFB4EF11165F504B0304140006080800CC70623B4FEEA4082C0100001202000031
310
0000006662782F39464131463745442D413632322D343644302D413938332D3331353338454246344243312F636F72652E786D6C8D515B6EC32010BC0AE2AB55850DD871ED0813254D72825EC00192A2C460F1A872FC42ED48ED5F7E00CDCECCCEB26C731F6FE05B39AFADE921293004CA082BB5B9F43086336A21D870E6AC
310
0D7F68109861543DCC30E4ECE26C9C164858139409093556AA051CBC570102714B8F1E7AF1A5C6A11862480C7F2DA6415C878B2A4891CA89C7990F2E050073937C42DE1DB7E4F87ED8A36D4329AA9B3D46DBAEAD504556557BD81DEBDD0761E52CE42C462D17B996298E3E6BE59E35C962CE821E1FF18553435012728A7187
310
0841987E927A8D9B35ADDF70BBC6989599FE4F1427F9A4286A132ABAC49D651EF234CD5CE04CDA78BA3DC2A8FB645D00B9DF8B57E215725C60BCA2A463E54C4CE327C7A65E1C7DB02E7DEFCBF594B864C5CA6CDBD49C957943E9FA5D5FBAF336F90F504B0304140006080800CC70623BAD7543B64E01000033030000300000
310
006662782F39464131463745442D413632322D343644302D413938332D3331353338454246344243312F636E782E786D6CD593CD6EC32010845F0571AD6CE3D48AD20813A9873E410FBD12D82434182C7EAAE6EDBB2424CD25871E7B41D6EC30B3FA84F9E67BB2E40B4234DE8DB46F1925E094D7C6ED479AD3AE5951B2113C
310
789FEE6C943839C1488B4C05DF079FE72A69D8C96C13AAD6B8631503449F83828872B949AC57D26200B826A308D316B4064D6E46FCDA41C05550DC9E483A00797BFD207EFB092A45DE9514C1BBD22178396BD39D891265658C238DEA00936C654E5E433CB65A26D9F6EDB5EBC14EBF49A45CB856E66048291F6939A9A81BB5
310
C8917738143CA680F4AA299D66A042CEB3354A2684DC9D8D178FE0D9B8B41CAAD720F880EE7EF93C0C18769E099ECC04D5A102C8049A8A05632F4DDF376CF1DE0F6BB65C2F8627B65A33C6BB62177CEBBDAD973006829F89F22E814B54F4BC2BE347F8AA8F681390B50FA73F804400B5F542E796F19FF974E7F78DB802FE05
310
E207504B0304140006080800CC70623B16AB87BA640500003C100000340000006662782F39464131463745442D413632322D343644302D413938332D3331353338454246344243312F6F626A656374732E786D6CAD575B6FA33818FD2B887DE6924B3BED8A326A92B68A663B534DD4D13E548A0C38942D60649B369D5FBFC7
310
600890A493BDE42160637FD7F31D7FF63E6FB3D478A55C242CBF3247B66B1A340F5994E4F19559CA8D75611A9F7D8F33263BCB4C232719BD32D5B4E97B316765A1A722BA21652A07B3B7B33F0D11D29C9A46981221AE4C113ED38CD8A4942CA2E2C58E882476BCD9DA23BB5ED8171B73523C0F841684D35CC252CCE79062D4
310
468DFA43D7747CCF51DF7D4FFDEB5593E3AB9CCA9FBEFE241792E4E19EB28198C968BAB8199F5D5A67D3E9C49A9E8F47D6EC76B6B0469F26EEFC7C3EBFBCBEB98462213924694B38DD98FE1D62C393D073EA4FADC5DAF04326852CCF6958F90F0F2B9BB5C48816348F90C7840A68EB78EDF68723159BCEE7891A6B95DDE9D3
310
BCEAEEE8086A6C6F9E5D4B59F0175C10A7A0820BAA5055C7473B5AE3CFDD452D602CD5DF12616444529E90D448938013FE6EFA58AA96F85E4F8C42275708571E98FE6827AF6B2B4AE3D7D83D64E5A64C53054DD3AF90BD06FEA9149565C94FCA0F6B834DC85599E4F2423B24DF0B6AFA979E534DFA9E7A4CC6FA631D486393
310
921829879BF5D781A373557BCB85E97FB90DB62B558F8795179C15944B051F40AB495CF35451D26A4727654E6D8033BD98EF82F21D91FF8AF2DD9982BCF1643BDD4EB516C9492E368C67C88DED563FC36D5EACF66DFF057C3658BDBFA69DF9578B3DA735B64F18C7F20770A9D45CFCF7FCF563D6456A277DBEF78A02637CA2
310
43B90A490AEAB94F72244481D24819A6C0E59B606BFA4B3025981DBB48EAB701D97BF19C577CC77F2D1B6C55A9EF3C732474C0B727303F625995056C3B02963D9EAC146BE78EC5FCEC7FA999EBC5EACBAAE41B12D27B4D2C0BBA49F244E2ECDC81B76B502F113D8F5EE8FB1BE3111CDD4FC2AA9B844CAB1288B68AB90A7CDC
310
1C166AB0D3DC5310625FCC14E779BFD0709F8890A629C9292B1B2DED31A4B0DA928CEE135085754027E3018A397D4D5427D15BD1330B677DC8934285AC3DF45A9EB68FF8F2B8FC0A509AFEECFD0FF2DE25CC6047F7214B195F07EFEB9A094D800F7BFAE8FED187B78EA8A3A400F115961BCAD1215E47C966530AF0EE8128FE
310
58CEBB996A8964FFA529A046635D9353B0336A8F700DDF46271A024E70B0B37C9DE01847591E54DED53D54202AB947E4076556AC49C6CA5C9E1226B7F1A7B1BE15DEED62C41B91E1B3E9AFAAA735036547343A925075041DF0A9979E893B391F8FCFA6967B3EFB644DCF6E5CEBFAE272625DCC6FAF3FB93793C5F90CE1EF57
310
407342756B10D1C489E8953CD1617E5CEECAD6F4EF8914CE5D5D504E5C3F1F9736DA62CFC11E00BCDDB8CC8A9466349744C1F75EBDA4DF09BA8A9E8C7A7E9991989E20E5DBDD6A6003664ED8F7A04A8DBE0DF6EAD9B9AA858342E47399053949D2C146EDB85DE4B176BB0965FBAC19BD19AA918E27FA50C1D22402E144464C
310
59462568E704B6E71915404CB72B8FF4EDE184DDAF753F284990D2C6926782963815403548A70C657FDEF80D2D9CEAA2AE4C1C76F60BFE74219A06527D6582DF6412526107381E55E353090704D085B52408D0933C4ED159D79BDA71BB4BC506F4831350EB6F979CD22D69BF7AC49B91A2C0A9DDA3D5CA36AD20FC478E37E6
310
1844E2352865EBCB6EA275A652E3836BE04EFB400BF1A2556F515F1FBB35B2AB35BD889C744FFA1004B5544B121E57F70215746DD2F5E2C1412B602CBF19455AC6C8E5E9922C4E01E65215385004546899059180EAFCF7A707CE7017CD8CDB0410789AB32C63B91E5CEBBBACB17AC6CD347A022D5075FD106377347AAABA7E
310
7D11590744509B44E205134DC1290F06580320F78E537D3D73540E06CB970B431F185308AD40BBD794D6D77003C5A36E8EAA54BA64597CD8F83BD552A080A365F7FF06504B0304140006080000CC70623B000000000000000000000000350000006662782F39464131463745442D413632322D343644302D413938332D3331
310
353338454246344243312F76657274696365732E62696E504B0304140006080800CC70623BF270F1330600000004000000360000006662782F39464131463745442D413632322D343644302D413938332D3331353338454246344243312F747269616E676C65732E62696E636660600000504B0304140006080000CC70623B
310
000000000000000000000000370000006662782F39464131463745442D413632322D343644302D413938332D3331353338454246344243312F617474726962757465732E62696E504B0304140006080800CC70623B08DA0BD19000000041010000360000006662782F39464131463745442D413632322D343644302D413938
310
332D3331353338454246344243312F6469726563746F72792E786D6C858F410AC3201045AF22B36F53E9A60B35CBEEBAE80D244E44489C6234F4F835464A48035D0DF398FF9F8AF63D0E6CC63039F212F8F9020C7D47C6792B21C5FE7403D62A1188E2E60C98D7234A5830286103A55745067B9D86B8A3CF9C7F90C11DE607
310
FB144396D7B6A82D282E9A152AD114D5EF2CB866EEE831B8EEA07A7BB5A8D7D61A2BAAEB7FD5F70921FF497D00504B0304140006080800CC70623B0D6EF93BFE000000A00100003B0000006662782F39464131463745442D413632322D343644302D413938332D3331353338454246344243312F7265736F75726365732F63
310
6F72652E786D6C8D50596E833010BD0A9ADFCA60B334011947A8694ED00B586642AC041B79A97AFC9A40A5F6AF3F33A3B7689E1E3F7DCD8FEC139DD7D6F4C0720A191A65476DA61E62B892236427C19DB5E1970C322367EC618541F0C9D9B8EC90B226A009093576C41D94DE63804C3DD2D18357379C652E63480A7FCF17A9
310
EE72C29CE5894E3AC17D702940B63D59270887DE46A7D0F36263058F518FBB468FE9A7BE6A7420864373B8D4873369AA8691FA421B3294352543C5CAF65C0F6FEF43CB8BD52C78D0F34F46E550061C419494B6843142CB0F5677F4B52BEB177AEC28E5C52AFF638ACBF84F53D42654E51E77B379102C05791282176B5F693D
310
CB4C7BED567C03504B010214000A0000080000CC70623B3DEE336E79000000790000001B00000000000000000000000000000000006175746F6465736B2D64657369676E2D7061636B6167652E786D6C504B01021400140006080800CC70623BD486FD9CA0000000F40000001300000000000000000000000000B20000005B
310
436F6E74656E745F54797065735D2E786D6C504B01021400140006080800CC70623B1EC5D7A3EB0000007C010000080000000000000000000000000083010000636F72652E786D6C504B01021400140006080800CC70623B55019EA25F0000007C000000070000000000000000000000000094020000636E782E786D6C504B
310
01021400140006080800CC70623B8C9102E971010000D40300000C00000000000000000000000000180300006662782F636F72652E786D6C504B01021400140006080800CC70623BFFEA85907E0000009D0000000B00000000000000000000000000B30400006662782F636E782E786D6C504B01021400140006080800CC70
310
623B4FEEA4082C0100001202000031000000000000000000000000005A0500006662782F39464131463745442D413632322D343644302D413938332D3331353338454246344243312F636F72652E786D6C504B01021400140006080800CC70623BAD7543B64E010000330300003000000000000000000000000000D5060000
310
6662782F39464131463745442D413632322D343644302D413938332D3331353338454246344243312F636E782E786D6C504B01021400140006080800CC70623B16AB87BA640500003C1000003400000000000000000000000000710800006662782F39464131463745442D413632322D343644302D413938332D3331353338
310
454246344243312F6F626A656374732E786D6C504B01021400140006080000CC70623B0000000000000000000000003500000000000000000000000000270E00006662782F39464131463745442D413632322D343644302D413938332D3331353338454246344243312F76657274696365732E62696E504B01021400140006
310
080800CC70623BF270F133060000000400000036000000000000000000000000007A0E00006662782F39464131463745442D413632322D343644302D413938332D3331353338454246344243312F747269616E676C65732E62696E504B01021400140006080000CC70623B0000000000000000000000003700000000000000
310
000000000000D40E00006662782F39464131463745442D413632322D343644302D413938332D3331353338454246344243312F617474726962757465732E62696E504B01021400140006080800CC70623B08DA0BD190000000410100003600000000000000000000000000290F00006662782F39464131463745442D413632
310
322D343644302D413938332D3331353338454246344243312F6469726563746F72792E786D6C504B01021400140006080800CC70623B0D6EF93BFE000000A00100003B000000000000000000000000000D1000006662782F39464131463745442D413632322D343644302D413938332D3331353338454246344243312F7265
310
736F75726365732F636F72652E786D6C504B0506000000000E000E0080040000641100000000
  0
XRECORD
  5
1FB
102
{ACAD_REACTORS
330
173
102
}
330
173
100
AcDbXrecord
280
     1
 70
     0
 90
1673772943
  1
ECE7A1D2-D628-4531-984C-D00F80459256
310
504B03040A0000080000CC70623B3DEE336E79000000790000001B0000006175746F6465736B2D64657369676E2D7061636B6167652E786D6C3C3F786D6C2076657273696F6E3D22312E302220656E636F64696E673D227574662D3822203F3E3C666F726D6174733E3C666F726D61743E687474703A2F2F736368656D612E
310
6175746F6465736B2E636F6D2F64657369676E2D7061636B6167652F323030393C2F666F726D61743E3C2F666F726D6174733E504B0304140006080800CC70623BD486FD9CA0000000F4000000130000005B436F6E74656E745F54797065735D2E786D6C7D8EC10E82300C865F65E91D8A1E8C310C0EEA1BF002731658846E
310
D98AC1B77784ABF1D8FE5FBFBF75BBCE937A534CCEB38643598122B6FEE978D0B0485F9C41B54DDD7D022595594E1A469170414C76A4D9A4D207E29CF43ECE46F218070CC6BECC4078ACAA135ACF422C856C0E68EA1BF5669944DDD7BCDE7B1F8E415D77AECB980613C2E4AC91FC167A2B244592486606FC29C8FD7F045B9A
310
EF7053A7E60B504B0304140006080800CC70623BD9DDAED0EC0000007C01000008000000636F72652E786D6C8D90416EC3201045AF82665B61836D9CD8C2444DD39CA01740405C94182C03558F5F9C3852BBEB6A467FFE9B197D7EF89E6EE8CB2CC17A37002D0820E394D7D68D03A478C17B4007C117EFE32F1B20272733C0
310
2A83E0E3E2D3BC49CABB685CCCAAF3DA6CA20CC14440EA969B0182FA34932C648AD911AEC52CD5558EA6A0CF2EC329598D1E47ACCEFBECC59A050463A7EA5833865FEBDD0E37353BE3EE8DBDE3F6786A48D375FBF6CC78B9C282473B3DEFABC5C86834888A900E538A49F5419B9EB47DD5BC907D4F082F57FB1F28CDFA9F50
310
B22ED6D5F6EE030B20687EE43E10BC5CB3C8E51E54AE6B6EE207504B0304140006080800CC70623B55019EA25F0000007C00000007000000636E782E786D6C4DCB3B0E80201045D1AD90E915ED2CF8AC45050C11660C8261F98AB1B07AC9C97D42D718D865D3E909258CFD00CCE24AC6E326A164D74DC0B4128928FF326038
310
472BA13128B1252AC747C6BAB984FC68F0B87FE8960A5C09FE86CFB69FBA01504B0304140006080800CC70623BA24EB22D72010000D40300000C0000006662782F636F72652E786D6CC5535B6E833010BC8AE5DF0A6C5E49888CA3A6694ED00B38E05014B091B1518EDFE511A5A9D228FD2A1F60CDEC7A67C6986DCE4D8D7A
310
69BA4AAB0C073EC548AA5C17952A33ECECD15B61B4E1CC686DBF9561A44423333CC098B3D268D7CE50AE9595CA02AA74216750749DB418E5352C32DCE59FB211BE70162ABA93DF8AFC244AE9073ED050C759670D0840D390E18DF9F1706664C23973AE2A66B62A605A75ACA4C13C4976E1364A12EF355A2EBD384AF65EFA96
310
BC7B8BED2EA6719AAE16FB8491A199335B351775B991C2CA02F390D2D40B028F861F41BCA68B7518BFD0D59A524686F29B26D7164F36B94AD9289CE54E6D1DE6010819891F6E21228B3AD1831EC219194284CF98F06DD01008846CC5A1BEF83801D4CBDC6A1303536877A57A513B0953A94FC707FDBE6064EA84A9E3E6E0FA
310
EE8CF0E9198F7784A316AA0413C2C2F2E0ECA0934D1AE6D05A69BCDE9E91D2A611F573361E38FC1375157F5752AE6B6DFE4B11990F88CCBF0719EE23FF02504B0304140006080800CC70623B408A7D3B7C0000009D0000000B0000006662782F636E782E786D6C4DCCD10A83201886E15B91FFDC552A92A0064DBC8F581632
310
D3703A76F9ABD1C18E3E78F878E5F0D9027ABBFCF2292AE86E2D20171F69F6715550CB827B40839639A5F2770314A7CD293819B45C73AAFB45B35BA61ACAA1C1C7E7855C58C15BC331339661262CC762340413D68D77DA5B42298546CBE6573AF60CEB2F504B0304140006080800CC70623B449FB9BD290100001202000031
310
0000006662782F36394639363044362D344446342D343946362D394244322D3234314243333846323333332F636F72652E786D6C8D515B6EC32010BC0AE22B55850D98B871848994463E412FE002495162B07854397EA176A4F62F3F2C9A9D991D587EB84F37F0AD7D30CEF6905418026DA553C65E7A98E219ED203808EE9D
310
8B7F6810D871D23D2C3014FCE25D9A57483A1BB58D19B54EE9151C43D0110279CB971E06F9A5A7B11A53CC8C70ADE6515EC78BAE4895DB992778883E0700CB907242D17643D7E2538BD869608875438BBAE38922CAC8F1BDD90DB4691A5E2F42C153326A951B95E398B3D1FE599322163C9AE9115F7A3D46ADA0A018778810
310
84E907617BDCEE297BC5BB3DC6BC2EF47FA234AB2745C9D8D8D035EE220B50105E2F0DC1954B9FB747187D9F9D8FA0CCDB042D5FA0C015C65B42DF78BD10F3F3B363CB56C7109DCFDFBBB97E662ED92EB62D13BC2E1BCAE5777DB9966D8A1F504B0304140006080800CC70623BAD7543B64E01000033030000300000006662
310
782F36394639363044362D344446342D343946362D394244322D3234314243333846323333332F636E782E786D6CD593CD6EC32010845F0571AD6CE3D48AD20813A9873E410FBD12D82434182C7EAAE6EDBB2424CD25871E7B41D6EC30B3FA84F9E67BB2E40B4234DE8DB46F1925E094D7C6ED479AD3AE5951B2113C789FEE
310
6C943839C1488B4C05DF079FE72A69D8C96C13AAD6B8631503449F83828872B949AC57D26200B826A308D316B4064D6E46FCDA41C05550DC9E483A00797BFD207EFB092A45DE9514C1BBD22178396BD39D891265658C238DEA00936C654E5E433CB65A26D9F6EDB5EBC14EBF49A45CB856E66048291F6939A9A81BB5C89177
310
38143CA680F4AA299D66A042CEB3354A2684DC9D8D178FE0D9B8B41CAAD720F880EE7EF93C0C18769E099ECC04D5A102C8049A8A05632F4DDF376CF1DE0F6BB65C2F8627B65A33C6BB62177CEBBDAD973006829F89F22E814B54F4BC2BE347F8AA8F681390B50FA73F804400B5F542E796F19FF974E7F78DB802FE05E20750
310
4B0304140006080800CC70623B8D05915C650500003B100000340000006662782F36394639363044362D344446342D343946362D394244322D3234314243333846323333332F6F626A656374732E786D6CAD575B6FA33814FE2B887D06429276DA1565D4266D158D3A339A6846FB502932E050B66023DB74D2FDF5FB190C01
310
9276B2973C046C8ECFF53B17071F77456EBD502133CEAE6CDF9DD81665314F32965ED995DA3A17B6F5310C04E7AA47665B8C14F4CAD6DB7618A48257A5D94AE89654B91AEDDEDDFC61C998326A5B714EA4BCB265FC440BE2924AF184CA6737218AB8E976E7FA6E4338649B0A523E8D98964450A6A029F619B8588D52FE7039
310
B1BD30F0F4F730D0FF866AF6369557DB33949F31A9088B0F848DD8CCFCF9F2767A76E99CCDE733677E3EF59D9BBB9BA5E37F984D16E78BC5E5F5ED25044B25C0C96822E8D60EEFE11B91C581D77CEA34368A1F5329E68CD1B8B61F16D63A1B8E092D294B10C78C4A48EB593D192E7DED9BDEE7995E1B91FDEDD3ACEA9FE831
310
6A756F9F7D4D79F4274C90A7A04248AA51D5F8C718DAE06FB2F75AC4796EBE65D22A88A22223B995679120E2D50E41AA49C260C046A35368846B0BECD0DFF3EBEB8AD4F835768F69B9ADF25C43D30E6B646F807FAA64AD59F61715C7A54127C4AACA98BA3006A9D792DAE165E0D59B61A01FB3A9F9D838D2DAE62445C86166
310
F37564E842E7DE6A69879FEEA2DD5AE7E371E1A5E025154AC307D06A03D73EB5978C58FFA4C8E9033066E0F3BD53BEC1F39F91BE7B55103791EDE6BBB991A2046172CB4581D8B893FA674DDA17A77B3B7C413D1B511FD2743BFF8A38F03A658705E3ADF8015C3A3417FF3D7E439FF591DA0B5F18BC20C1B8981957AE6392A3
310
F43C640C01D1A0B4728E2DD4F26DB4B3C3152A252A3B4E913CEC1C72F012782FF88EFF8637AA552DBEF76408E8A8DE9E50F9E1CB3A2DA0DB1B6039A893B56063DC5B3E3FFB5F72E67AB9FEB4AEC496C4F4C1149625DD662C53E89D7BF0F6151A046260D1337DFDC94502430F83B0EE07A130A224BCAD7DAE1D9FB6CD422FF6
310
920702629C4BB9AE79C12F243C6432A6794E18E5552BA56B431AAB5D91317302B2B071E86C3A42B1A02F999E24061403B5D0EB639195DA655DD3EBEAB4FB862DDF579F014AD0E73C22F99E28DA57FB98E75C6CA2D74D53086D600F4786E0FE3144B771A8A7B900F03594DB8A633CBC49B2EDB69228BB479CF863B5E807AAAB
310
23872F6DFEB4129B949CA33823F58830E86D65621E10047D9DB34D862E8EAC3C2ABC2F7B2C40D67CDFE01F5545B92105AF983AC54D93D69E56FB8E797F88913F898A9FEC705D3F9D1B54EC8426FB500D40A03BD0119B06E1B95DDC7EB8F6975367793EBD70E66733DFB9BC982F9CE564727731999F5D4ECFCE3B8D6A4DC2A0
310
6D50FD148437D110834A64C6CDDF57FBACB5C307A2A477DFE4939736CFEF2B175371E0E10CF0DD1D5C15654E0BCA14D1E87DD02FF93782A162C0A3D95F1524A52770F972BF1EE9809D13CE7DD599467F8ECE9ADD85CE85A34CD45355448C64F9E8A031DC2D596ACC6E5DD93D9B82DE2EF5CAF81363A8E47996A0DE24564A79
310
4115AACE09C55E14540231FDA13C319787134EBF34E3A022514E5B4D9E0826E25C02D5805B15ABE1BEF51B26383D445DD9E875EE33FE4C22DA16427D65A3BCA92CA6D28DD01DF5DC53330704308475351050232CCD31583787BA75774AFB06E5070DD0C8EF484E19968C5D83BA5B90B244D31E54D55A372320FE4786B7EA58
310
44E135AA5467CB7EA333A61683CC6A8C3257034C10CF46F40EF9F5BE59BE5BD30C3C72D235E95D10345C1D45445A5F0BB47E46A5EBE5570F9380B5FA629579952296A773720405982B9DE04011506178964401AA8BDF1FBF0A8EAB6861DD6580C0E38217056766716DAEB2D6FA0917D3E4116581EADB879C4E7CFFB11EFACD
310
3D641311495D92C8676CB409A72D18610D803CE8A626049E8EC1887CB5B44CC39883690DDA8399B4B9855B481E7D71D4A9D22F96E5BB73BF5793020C02137BF837504B0304140006080000CC70623B000000000000000000000000350000006662782F36394639363044362D344446342D343946362D394244322D32343142
310
43333846323333332F76657274696365732E62696E504B0304140006080800CC70623BF270F1330600000004000000360000006662782F36394639363044362D344446342D343946362D394244322D3234314243333846323333332F747269616E676C65732E62696E636660600000504B0304140006080000CC70623B0000
310
00000000000000000000370000006662782F36394639363044362D344446342D343946362D394244322D3234314243333846323333332F617474726962757465732E62696E504B0304140006080800CC70623B08DA0BD19000000041010000360000006662782F36394639363044362D344446342D343946362D394244322D
310
3234314243333846323333332F6469726563746F72792E786D6C858F410AC3201045AF22B36F53E9A60B35CBEEBAE80D244E44489C6234F4F835464A48035D0DF398FF9F8AF63D0E6CC63039F212F8F9020C7D47C6792B21C5FE7403D62A1188E2E60C98D7234A5830286103A55745067B9D86B8A3CF9C7F90C11DE607FB14
310
4396D7B6A82D282E9A152AD114D5EF2CB866EEE831B8EEA07A7BB5A8D7D61A2BAAEB7FD5F70921FF497D00504B0304140006080800CC70623BCA768048FE000000A00100003B0000006662782F36394639363044362D344446342D343946362D394244322D3234314243333846323333332F7265736F75726365732F636F72
310
652E786D6C8D50596E833010BD0A9ADFCA60D600328E9AA639412F609909B1126CE4A5EAF16B0295DABFFECC8CDEA2797AECF8353F924FB44E193D409E5248504B332A3D0D10FC95B4901C39B3C6F85F3248B49871801506CE266BC2B243D2688FDA47549B11775038871E12F988C7004EDE7016A9083E2ADC3D5D84BC8B09
310
D33C8D74D471E6BC8D0192EDC93A815B742658898E651BCB59086ADC356A8C3FD555A1055ED7E7E254D615792D0F075295F585746FF53B694EE78A565DD736979A65AB9933AFE69F8CD2A2F038022F28ED489E135A7CE4554F9BBEA85E68DB53CAB255FEC71496F19FA6A0B42F8B3DEE6673C0F318E4497096AD7DC5F52C33
310
EEB55BFE0D504B010214000A0000080000CC70623B3DEE336E79000000790000001B00000000000000000000000000000000006175746F6465736B2D64657369676E2D7061636B6167652E786D6C504B01021400140006080800CC70623BD486FD9CA0000000F40000001300000000000000000000000000B20000005B436F
310
6E74656E745F54797065735D2E786D6C504B01021400140006080800CC70623BD9DDAED0EC0000007C010000080000000000000000000000000083010000636F72652E786D6C504B01021400140006080800CC70623B55019EA25F0000007C000000070000000000000000000000000095020000636E782E786D6C504B0102
310
1400140006080800CC70623BA24EB22D72010000D40300000C00000000000000000000000000190300006662782F636F72652E786D6C504B01021400140006080800CC70623B408A7D3B7C0000009D0000000B00000000000000000000000000B50400006662782F636E782E786D6C504B01021400140006080800CC70623B
310
449FB9BD290100001202000031000000000000000000000000005A0500006662782F36394639363044362D344446342D343946362D394244322D3234314243333846323333332F636F72652E786D6C504B01021400140006080800CC70623BAD7543B64E010000330300003000000000000000000000000000D20600006662
310
782F36394639363044362D344446342D343946362D394244322D3234314243333846323333332F636E782E786D6C504B01021400140006080800CC70623B8D05915C650500003B10000034000000000000000000000000006E0800006662782F36394639363044362D344446342D343946362D394244322D32343142433338
310
46323333332F6F626A656374732E786D6C504B01021400140006080000CC70623B0000000000000000000000003500000000000000000000000000250E00006662782F36394639363044362D344446342D343946362D394244322D3234314243333846323333332F76657274696365732E62696E504B010214001400060808
310
00CC70623BF270F13306000000040000003600000000000000000000000000780E00006662782F36394639363044362D344446342D343946362D394244322D3234314243333846323333332F747269616E676C65732E62696E504B01021400140006080000CC70623B00000000000000000000000037000000000000000000
310
00000000D20E00006662782F36394639363044362D344446342D343946362D394244322D3234314243333846323333332F617474726962757465732E62696E504B01021400140006080800CC70623B08DA0BD190000000410100003600000000000000000000000000270F00006662782F36394639363044362D344446342D
310
343946362D394244322D3234314243333846323333332F6469726563746F72792E786D6C504B01021400140006080800CC70623BCA768048FE000000A00100003B000000000000000000000000000B1000006662782F36394639363044362D344446342D343946362D394244322D3234314243333846323333332F7265736F
310
75726365732F636F72652E786D6C504B0506000000000E000E0080040000621100000000
  0
XRECORD
  5
93D
102
{ACAD_REACTORS
330
93C
102
}
330
93C
100
AcDbXrecord
280
     1
102
DISPLAYNAME
  1
Metric50
102
FLAGS
 90
        0
  0
CELLSTYLEMAP
  5
93F
102
{ACAD_REACTORS
330
93E
102
}
330
93E
100
AcDbCellStyleMap
 90
        3
300
CELLSTYLE
  1
TABLEFORMAT_BEGIN
 90
        5
170
     1
 91
        0
 92
    32768
 62
   257
 93
        1
300
CONTENTFORMAT
  1
CONTENTFORMAT_BEGIN
 90
        0
 91
        0
 92
      512
 93
        0
300

 40
0.0
140
1.0
 94
        5
 62
     0
340
11
144
6.0
309
CONTENTFORMAT_END
171
     1
301
MARGIN
  1
CELLMARGIN_BEGIN
 40
1.5
 40
1.5
 40
1.5
 40
1.5
 40
4.5
 40
4.5
309
CELLMARGIN_END
 94
        6
 95
        1
302
GRIDFORMAT
  1
GRIDFORMAT_BEGIN
 90
        0
 91
        1
 62
     0
 92
       -2
340
14
 93
        0
 40
1.125
309
GRIDFORMAT_END
 95
        2
302
GRIDFORMAT
  1
GRIDFORMAT_BEGIN
 90
        0
 91
        1
 62
     0
 92
       -2
340
14
 93
        0
 40
1.125
309
GRIDFORMAT_END
 95
        4
302
GRIDFORMAT
  1
GRIDFORMAT_BEGIN
 90
        0
 91
        1
 62
     0
 92
       -2
340
14
 93
        0
 40
1.125
309
GRIDFORMAT_END
 95
        8
302
GRIDFORMAT
  1
GRIDFORMAT_BEGIN
 90
        0
 91
        1
 62
     0
 92
       -2
340
14
 93
        0
 40
1.125
309
GRIDFORMAT_END
 95
       16
302
GRIDFORMAT
  1
GRIDFORMAT_BEGIN
 90
        0
 91
        1
 62
     0
 92
       -2
340
14
 93
        0
 40
1.125
309
GRIDFORMAT_END
 95
       32
302
GRIDFORMAT
  1
GRIDFORMAT_BEGIN
 90
        0
 91
        1
 62
     0
 92
       -2
340
14
 93
        0
 40
1.125
309
GRIDFORMAT_END
309
TABLEFORMAT_END
  1
CELLSTYLE_BEGIN
 90
        1
 91
        1
300
_TITLE
309
CELLSTYLE_END
300
CELLSTYLE
  1
TABLEFORMAT_BEGIN
 90
        5
170
     1
 91
        0
 92
        0
 62
   257
 93
        1
300
CONTENTFORMAT
  1
CONTENTFORMAT_BEGIN
 90
        0
 91
        0
 92
      512
 93
        0
300

 40
0.0
140
1.0
 94
        5
 62
     0
340
11
144
4.5
309
CONTENTFORMAT_END
171
     1
301
MARGIN
  1
CELLMARGIN_BEGIN
 40
1.5
 40
1.5
 40
1.5
 40
1.5
 40
4.5
 40
4.5
309
CELLMARGIN_END
 94
        6
 95
        1
302
GRIDFORMAT
  1
GRIDFORMAT_BEGIN
 90
        0
 91
        1
 62
     0
 92
       -2
340
14
 93
        0
 40
1.125
309
GRIDFORMAT_END
 95
        2
302
GRIDFORMAT
  1
GRIDFORMAT_BEGIN
 90
        0
 91
        1
 62
     0
 92
       -2
340
14
 93
        0
 40
1.125
309
GRIDFORMAT_END
 95
        4
302
GRIDFORMAT
  1
GRIDFORMAT_BEGIN
 90
        0
 91
        1
 62
     0
 92
       -2
340
14
 93
        0
 40
1.125
309
GRIDFORMAT_END
 95
        8
302
GRIDFORMAT
  1
GRIDFORMAT_BEGIN
 90
        0
 91
        1
 62
     0
 92
       -2
340
14
 93
        0
 40
1.125
309
GRIDFORMAT_END
 95
       16
302
GRIDFORMAT
  1
GRIDFORMAT_BEGIN
 90
        0
 91
        1
 62
     0
 92
       -2
340
14
 93
        0
 40
1.125
309
GRIDFORMAT_END
 95
       32
302
GRIDFORMAT
  1
GRIDFORMAT_BEGIN
 90
        0
 91
        1
 62
     0
 92
       -2
340
14
 93
        0
 40
1.125
309
GRIDFORMAT_END
309
TABLEFORMAT_END
  1
CELLSTYLE_BEGIN
 90
        2
 91
        1
300
_HEADER
309
CELLSTYLE_END
300
CELLSTYLE
  1
TABLEFORMAT_BEGIN
 90
        5
170
     1
 91
        0
 92
        0
 62
   257
 93
        1
300
CONTENTFORMAT
  1
CONTENTFORMAT_BEGIN
 90
        0
 91
        0
 92
      512
 93
        0
300

 40
0.0
140
1.0
 94
        2
 62
     0
340
11
144
4.5
309
CONTENTFORMAT_END
171
     1
301
MARGIN
  1
CELLMARGIN_BEGIN
 40
1.5
 40
1.5
 40
1.5
 40
1.5
 40
4.5
 40
4.5
309
CELLMARGIN_END
 94
        6
 95
        1
302
GRIDFORMAT
  1
GRIDFORMAT_BEGIN
 90
        0
 91
        1
 62
     0
 92
       -2
340
14
 93
        0
 40
1.125
309
GRIDFORMAT_END
 95
        2
302
GRIDFORMAT
  1
GRIDFORMAT_BEGIN
 90
        0
 91
        1
 62
     0
 92
       -2
340
14
 93
        0
 40
1.125
309
GRIDFORMAT_END
 95
        4
302
GRIDFORMAT
  1
GRIDFORMAT_BEGIN
 90
        0
 91
        1
 62
     0
 92
       -2
340
14
 93
        0
 40
1.125
309
GRIDFORMAT_END
 95
        8
302
GRIDFORMAT
  1
GRIDFORMAT_BEGIN
 90
        0
 91
        1
 62
     0
 92
       -2
340
14
 93
        0
 40
1.125
309
GRIDFORMAT_END
 95
       16
302
GRIDFORMAT
  1
GRIDFORMAT_BEGIN
 90
        0
 91
        1
 62
     0
 92
       -2
340
14
 93
        0
 40
1.125
309
GRIDFORMAT_END
 95
       32
302
GRIDFORMAT
  1
GRIDFORMAT_BEGIN
 90
        0
 91
        1
 62
     0
 92
       -2
340
14
 93
        0
 40
1.125
309
GRIDFORMAT_END
309
TABLEFORMAT_END
  1
CELLSTYLE_BEGIN
 90
        3
 91
        2
300
_DATA
309
CELLSTYLE_END
  0
XRECORD
  5
941
102
{ACAD_REACTORS
330
940
102
}
330
940
100
AcDbXrecord
280
     1
102
RTVSPost2010Prop28
280
     1
102
RTVSPost2010PropOp28
 70
     1
102
RTVSPost2010Prop29
280
     1
102
RTVSPost2010PropOp29
 70
     1
102
RTVSPost2010Prop30
280
     0
102
RTVSPost2010PropOp30
 70
     1
102
RTVSPost2010Prop31
280
     0
102
RTVSPost2010PropOp31
 70
     1
102
RTVSPost2010Prop32
280
     0
102
RTVSPost2010PropOp32
 70
     1
102
RTVSPost2010Prop33
280
     0
102
RTVSPost2010PropOp33
 70
     1
102
RTVSPost2010Prop34
280
     0
102
RTVSPost2010PropOp34
 70
     1
102
RTVSPost2010Prop35
280
     0
102
RTVSPost2010PropOp35
 70
     1
102
RTVSPost2010Prop36
280
     0
102
RTVSPost2010PropOp36
 70
     1
102
RTVSPost2010Prop37
 90
       50
102
RTVSPost2010PropOp37
 70
     1
102
RTVSPost2010Prop38
140
0.0
102
RTVSPost2010PropOp38
 70
     1
102
RTVSPost2010Prop39
140
1.0
102
RTVSPost2010PropOp39
 70
     1
102
RTVSPost2010Prop40
 90
        0
102
RTVSPost2010PropOp40
 70
     1
102
RTVSPost2010Prop41ColorIndex
 90
       18
102
RTVSPost2010Prop41ColorRGB
 90
        0
102
RTVSPost2010PropOp41
 70
     1
102
RTVSPost2010Prop42
 90
       50
102
RTVSPost2010PropOp42
 70
     1
102
RTVSPost2010Prop43
 90
        3
102
RTVSPost2010PropOp43
 70
     1
102
RTVSPost2010Prop44ColorIndex
 90
        5
102
RTVSPost2010Prop44ColorRGB
 90
      255
102
RTVSPost2010PropOp44
 70
     1
102
RTVSPost2010Prop45
280
     0
102
RTVSPost2010PropOp45
 70
     1
102
RTVSPost2010Prop46
 90
       50
102
RTVSPost2010PropOp46
 70
     1
102
RTVSPost2010Prop47
 90
       50
102
RTVSPost2010PropOp47
 70
     1
102
RTVSPost2010Prop48
 90
       50
102
RTVSPost2010PropOp48
 70
     1
102
RTVSPost2010Prop49
280
     0
102
RTVSPost2010PropOp49
 70
     1
102
RTVSPost2010Prop50
 90
       50
102
RTVSPost2010PropOp50
 70
     1
102
RTVSPost2010Prop51ColorIndex
 90
      256
102
RTVSPost2010Prop51ColorRGB
 90
-16777216
102
RTVSPost2010PropOp51
 70
     0
102
RTVSPost2010Prop52
140
1.0
102
RTVSPost2010PropOp52
 70
     0
102
RTVSPost2010Prop53
 90
        2
102
RTVSPost2010PropOp53
 70
     1
102
RTVSPost2010Prop54
  1
strokes_ogs.tif
102
RTVSPost2010PropOp54
 70
     1
102
RTVSPost2010Prop55
280
     0
102
RTVSPost2010PropOp55
 70
     1
102
RTVSPost2010Prop56
140
1.0
102
RTVSPost2010PropOp56
 70
     1
102
RTVSPost2010Prop57
140
1.0
102
RTVSPost2010PropOp57
 70
     1
  0
XRECORD
  5
943
102
{ACAD_REACTORS
330
942
102
}
330
942
100
AcDbXrecord
280
     1
102
RTVSPost2010Prop28
280
     0
102
RTVSPost2010PropOp28
 70
     1
102
RTVSPost2010Prop29
280
     1
102
RTVSPost2010PropOp29
 70
     1
102
RTVSPost2010Prop30
280
     1
102
RTVSPost2010PropOp30
 70
     1
102
RTVSPost2010Prop31
280
     0
102
RTVSPost2010PropOp31
 70
     1
102
RTVSPost2010Prop32
280
     0
102
RTVSPost2010PropOp32
 70
     1
102
RTVSPost2010Prop33
280
     0
102
RTVSPost2010PropOp33
 70
     1
102
RTVSPost2010Prop34
280
     0
102
RTVSPost2010PropOp34
 70
     1
102
RTVSPost2010Prop35
280
     0
102
RTVSPost2010PropOp35
 70
     1
102
RTVSPost2010Prop36
280
     0
102
RTVSPost2010PropOp36
 70
     1
102
RTVSPost2010Prop37
 90
       50
102
RTVSPost2010PropOp37
 70
     1
102
RTVSPost2010Prop38
140
0.0
102
RTVSPost2010PropOp38
 70
     1
102
RTVSPost2010Prop39
140
1.0
102
RTVSPost2010PropOp39
 70
     1
102
RTVSPost2010Prop40
 90
        0
102
RTVSPost2010PropOp40
 70
     1
102
RTVSPost2010Prop41ColorIndex
 90
       18
102
RTVSPost2010Prop41ColorRGB
 90
        0
102
RTVSPost2010PropOp41
 70
     1
102
RTVSPost2010Prop42
 90
       50
102
RTVSPost2010PropOp42
 70
     1
102
RTVSPost2010Prop43
 90
        3
102
RTVSPost2010PropOp43
 70
     1
102
RTVSPost2010Prop44ColorIndex
 90
        5
102
RTVSPost2010Prop44ColorRGB
 90
      255
102
RTVSPost2010PropOp44
 70
     1
102
RTVSPost2010Prop45
280
     0
102
RTVSPost2010PropOp45
 70
     1
102
RTVSPost2010Prop46
 90
       50
102
RTVSPost2010PropOp46
 70
     1
102
RTVSPost2010Prop47
 90
       50
102
RTVSPost2010PropOp47
 70
     1
102
RTVSPost2010Prop48
 90
       50
102
RTVSPost2010PropOp48
 70
     1
102
RTVSPost2010Prop49
280
     0
102
RTVSPost2010PropOp49
 70
     1
102
RTVSPost2010Prop50
 90
       50
102
RTVSPost2010PropOp50
 70
     1
102
RTVSPost2010Prop51ColorIndex
 90
      256
102
RTVSPost2010Prop51ColorRGB
 90
-16777216
102
RTVSPost2010PropOp51
 70
     0
102
RTVSPost2010Prop52
140
1.0
102
RTVSPost2010PropOp52
 70
     0
102
RTVSPost2010Prop53
 90
        2
102
RTVSPost2010PropOp53
 70
     1
102
RTVSPost2010Prop54
  1
strokes_ogs.tif
102
RTVSPost2010PropOp54
 70
     1
102
RTVSPost2010Prop55
280
     0
102
RTVSPost2010PropOp55
 70
     1
102
RTVSPost2010Prop56
140
1.0
102
RTVSPost2010PropOp56
 70
     1
102
RTVSPost2010Prop57
140
1.0
102
RTVSPost2010PropOp57
 70
     1
  0
XRECORD
  5
945
102
{ACAD_REACTORS
330
944
102
}
330
944
100
AcDbXrecord
280
     1
102
RTVSPost2010Prop28
280
     0
102
RTVSPost2010PropOp28
 70
     1
102
RTVSPost2010Prop29
280
     1
102
RTVSPost2010PropOp29
 70
     1
102
RTVSPost2010Prop30
280
     1
102
RTVSPost2010PropOp30
 70
     1
102
RTVSPost2010Prop31
280
     0
102
RTVSPost2010PropOp31
 70
     1
102
RTVSPost2010Prop32
280
     0
102
RTVSPost2010PropOp32
 70
     1
102
RTVSPost2010Prop33
280
     0
102
RTVSPost2010PropOp33
 70
     1
102
RTVSPost2010Prop34
280
     0
102
RTVSPost2010PropOp34
 70
     1
102
RTVSPost2010Prop35
280
     0
102
RTVSPost2010PropOp35
 70
     1
102
RTVSPost2010Prop36
280
     0
102
RTVSPost2010PropOp36
 70
     1
102
RTVSPost2010Prop37
 90
       50
102
RTVSPost2010PropOp37
 70
     1
102
RTVSPost2010Prop38
140
0.0
102
RTVSPost2010PropOp38
 70
     1
102
RTVSPost2010Prop39
140
1.0
102
RTVSPost2010PropOp39
 70
     1
102
RTVSPost2010Prop40
 90
        0
102
RTVSPost2010PropOp40
 70
     1
102
RTVSPost2010Prop41ColorIndex
 90
       18
102
RTVSPost2010Prop41ColorRGB
 90
        0
102
RTVSPost2010PropOp41
 70
     1
102
RTVSPost2010Prop42
 90
       50
102
RTVSPost2010PropOp42
 70
     1
102
RTVSPost2010Prop43
 90
        3
102
RTVSPost2010PropOp43
 70
     1
102
RTVSPost2010Prop44ColorIndex
 90
        5
102
RTVSPost2010Prop44ColorRGB
 90
      255
102
RTVSPost2010PropOp44
 70
     1
102
RTVSPost2010Prop45
280
     0
102
RTVSPost2010PropOp45
 70
     1
102
RTVSPost2010Prop46
 90
       50
102
RTVSPost2010PropOp46
 70
     1
102
RTVSPost2010Prop47
 90
       50
102
RTVSPost2010PropOp47
 70
     1
102
RTVSPost2010Prop48
 90
       50
102
RTVSPost2010PropOp48
 70
     1
102
RTVSPost2010Prop49
280
     0
102
RTVSPost2010PropOp49
 70
     1
102
RTVSPost2010Prop50
 90
       50
102
RTVSPost2010PropOp50
 70
     1
102
RTVSPost2010Prop51ColorIndex
 90
      256
102
RTVSPost2010Prop51ColorRGB
 90
-16777216
102
RTVSPost2010PropOp51
 70
     0
102
RTVSPost2010Prop52
140
1.0
102
RTVSPost2010PropOp52
 70
     0
102
RTVSPost2010Prop53
 90
        2
102
RTVSPost2010PropOp53
 70
     1
102
RTVSPost2010Prop54
  1
strokes_ogs.tif
102
RTVSPost2010PropOp54
 70
     1
102
RTVSPost2010Prop55
280
     0
102
RTVSPost2010PropOp55
 70
     1
102
RTVSPost2010Prop56
140
1.0
102
RTVSPost2010PropOp56
 70
     1
102
RTVSPost2010Prop57
140
1.0
102
RTVSPost2010PropOp57
 70
     1
  0
XRECORD
  5
947
102
{ACAD_REACTORS
330
946
102
}
330
946
100
AcDbXrecord
280
     1
102
RTVSPost2010Prop28
280
     0
102
RTVSPost2010PropOp28
 70
     1
102
RTVSPost2010Prop29
280
     1
102
RTVSPost2010PropOp29
 70
     1
102
RTVSPost2010Prop30
280
     1
102
RTVSPost2010PropOp30
 70
     1
102
RTVSPost2010Prop31
280
     0
102
RTVSPost2010PropOp31
 70
     1
102
RTVSPost2010Prop32
280
     0
102
RTVSPost2010PropOp32
 70
     1
102
RTVSPost2010Prop33
280
     0
102
RTVSPost2010PropOp33
 70
     1
102
RTVSPost2010Prop34
280
     0
102
RTVSPost2010PropOp34
 70
     1
102
RTVSPost2010Prop35
280
     0
102
RTVSPost2010PropOp35
 70
     1
102
RTVSPost2010Prop36
280
     0
102
RTVSPost2010PropOp36
 70
     1
102
RTVSPost2010Prop37
 90
       50
102
RTVSPost2010PropOp37
 70
     1
102
RTVSPost2010Prop38
140
0.0
102
RTVSPost2010PropOp38
 70
     1
102
RTVSPost2010Prop39
140
1.0
102
RTVSPost2010PropOp39
 70
     1
102
RTVSPost2010Prop40
 90
        0
102
RTVSPost2010PropOp40
 70
     1
102
RTVSPost2010Prop41ColorIndex
 90
       18
102
RTVSPost2010Prop41ColorRGB
 90
        0
102
RTVSPost2010PropOp41
 70
     1
102
RTVSPost2010Prop42
 90
       50
102
RTVSPost2010PropOp42
 70
     1
102
RTVSPost2010Prop43
 90
        3
102
RTVSPost2010PropOp43
 70
     1
102
RTVSPost2010Prop44ColorIndex
 90
        5
102
RTVSPost2010Prop44ColorRGB
 90
      255
102
RTVSPost2010PropOp44
 70
     1
102
RTVSPost2010Prop45
280
     0
102
RTVSPost2010PropOp45
 70
     1
102
RTVSPost2010Prop46
 90
       50
102
RTVSPost2010PropOp46
 70
     1
102
RTVSPost2010Prop47
 90
       50
102
RTVSPost2010PropOp47
 70
     1
102
RTVSPost2010Prop48
 90
       50
102
RTVSPost2010PropOp48
 70
     1
102
RTVSPost2010Prop49
280
     0
102
RTVSPost2010PropOp49
 70
     1
102
RTVSPost2010Prop50
 90
       50
102
RTVSPost2010PropOp50
 70
     1
102
RTVSPost2010Prop51ColorIndex
 90
      256
102
RTVSPost2010Prop51ColorRGB
 90
-16777216
102
RTVSPost2010PropOp51
 70
     0
102
RTVSPost2010Prop52
140
1.0
102
RTVSPost2010PropOp52
 70
     0
102
RTVSPost2010Prop53
 90
        2
102
RTVSPost2010PropOp53
 70
     1
102
RTVSPost2010Prop54
  1
strokes_ogs.tif
102
RTVSPost2010PropOp54
 70
     1
102
RTVSPost2010Prop55
280
     0
102
RTVSPost2010PropOp55
 70
     1
102
RTVSPost2010Prop56
140
1.0
102
RTVSPost2010PropOp56
 70
     1
102
RTVSPost2010Prop57
140
1.0
102
RTVSPost2010PropOp57
 70
     1
  0
XRECORD
  5
949
102
{ACAD_REACTORS
330
948
102
}
330
948
100
AcDbXrecord
280
     1
102
RTVSPost2010Prop28
280
     0
102
RTVSPost2010PropOp28
 70
     1
102
RTVSPost2010Prop29
280
     1
102
RTVSPost2010PropOp29
 70
     1
102
RTVSPost2010Prop30
280
     1
102
RTVSPost2010PropOp30
 70
     1
102
RTVSPost2010Prop31
280
     0
102
RTVSPost2010PropOp31
 70
     1
102
RTVSPost2010Prop32
280
     0
102
RTVSPost2010PropOp32
 70
     1
102
RTVSPost2010Prop33
280
     0
102
RTVSPost2010PropOp33
 70
     1
102
RTVSPost2010Prop34
280
     0
102
RTVSPost2010PropOp34
 70
     1
102
RTVSPost2010Prop35
280
     0
102
RTVSPost2010PropOp35
 70
     1
102
RTVSPost2010Prop36
280
     0
102
RTVSPost2010PropOp36
 70
     1
102
RTVSPost2010Prop37
 90
       50
102
RTVSPost2010PropOp37
 70
     1
102
RTVSPost2010Prop38
140
0.0
102
RTVSPost2010PropOp38
 70
     1
102
RTVSPost2010Prop39
140
1.0
102
RTVSPost2010PropOp39
 70
     1
102
RTVSPost2010Prop40
 90
        0
102
RTVSPost2010PropOp40
 70
     1
102
RTVSPost2010Prop41ColorIndex
 90
       18
102
RTVSPost2010Prop41ColorRGB
 90
        0
102
RTVSPost2010PropOp41
 70
     1
102
RTVSPost2010Prop42
 90
       50
102
RTVSPost2010PropOp42
 70
     1
102
RTVSPost2010Prop43
 90
        3
102
RTVSPost2010PropOp43
 70
     1
102
RTVSPost2010Prop44ColorIndex
 90
        5
102
RTVSPost2010Prop44ColorRGB
 90
      255
102
RTVSPost2010PropOp44
 70
     1
102
RTVSPost2010Prop45
280
     0
102
RTVSPost2010PropOp45
 70
     1
102
RTVSPost2010Prop46
 90
       50
102
RTVSPost2010PropOp46
 70
     1
102
RTVSPost2010Prop47
 90
       50
102
RTVSPost2010PropOp47
 70
     1
102
RTVSPost2010Prop48
 90
       50
102
RTVSPost2010PropOp48
 70
     1
102
RTVSPost2010Prop49
280
     0
102
RTVSPost2010PropOp49
 70
     1
102
RTVSPost2010Prop50
 90
       50
102
RTVSPost2010PropOp50
 70
     1
102
RTVSPost2010Prop51ColorIndex
 90
      256
102
RTVSPost2010Prop51ColorRGB
 90
-16777216
102
RTVSPost2010PropOp51
 70
     0
102
RTVSPost2010Prop52
140
1.0
102
RTVSPost2010PropOp52
 70
     0
102
RTVSPost2010Prop53
 90
        2
102
RTVSPost2010PropOp53
 70
     1
102
RTVSPost2010Prop54
  1
strokes_ogs.tif
102
RTVSPost2010PropOp54
 70
     1
102
RTVSPost2010Prop55
280
     0
102
RTVSPost2010PropOp55
 70
     1
102
RTVSPost2010Prop56
140
1.0
102
RTVSPost2010PropOp56
 70
     1
102
RTVSPost2010Prop57
140
1.0
102
RTVSPost2010PropOp57
 70
     1
  0
XRECORD
  5
94B
102
{ACAD_REACTORS
330
94A
102
}
330
94A
100
AcDbXrecord
280
     1
102
RTVSPost2010Prop28
280
     0
102
RTVSPost2010PropOp28
 70
     1
102
RTVSPost2010Prop29
280
     1
102
RTVSPost2010PropOp29
 70
     1
102
RTVSPost2010Prop30
280
     1
102
RTVSPost2010PropOp30
 70
     1
102
RTVSPost2010Prop31
280
     0
102
RTVSPost2010PropOp31
 70
     1
102
RTVSPost2010Prop32
280
     0
102
RTVSPost2010PropOp32
 70
     1
102
RTVSPost2010Prop33
280
     0
102
RTVSPost2010PropOp33
 70
     1
102
RTVSPost2010Prop34
280
     0
102
RTVSPost2010PropOp34
 70
     1
102
RTVSPost2010Prop35
280
     0
102
RTVSPost2010PropOp35
 70
     1
102
RTVSPost2010Prop36
280
     0
102
RTVSPost2010PropOp36
 70
     1
102
RTVSPost2010Prop37
 90
       50
102
RTVSPost2010PropOp37
 70
     1
102
RTVSPost2010Prop38
140
0.0
102
RTVSPost2010PropOp38
 70
     1
102
RTVSPost2010Prop39
140
1.0
102
RTVSPost2010PropOp39
 70
     1
102
RTVSPost2010Prop40
 90
        0
102
RTVSPost2010PropOp40
 70
     1
102
RTVSPost2010Prop41ColorIndex
 90
       18
102
RTVSPost2010Prop41ColorRGB
 90
        0
102
RTVSPost2010PropOp41
 70
     1
102
RTVSPost2010Prop42
 90
       50
102
RTVSPost2010PropOp42
 70
     1
102
RTVSPost2010Prop43
 90
        3
102
RTVSPost2010PropOp43
 70
     1
102
RTVSPost2010Prop44ColorIndex
 90
        5
102
RTVSPost2010Prop44ColorRGB
 90
      255
102
RTVSPost2010PropOp44
 70
     1
102
RTVSPost2010Prop45
280
     0
102
RTVSPost2010PropOp45
 70
     1
102
RTVSPost2010Prop46
 90
       50
102
RTVSPost2010PropOp46
 70
     1
102
RTVSPost2010Prop47
 90
       50
102
RTVSPost2010PropOp47
 70
     1
102
RTVSPost2010Prop48
 90
       50
102
RTVSPost2010PropOp48
 70
     1
102
RTVSPost2010Prop49
280
     0
102
RTVSPost2010PropOp49
 70
     1
102
RTVSPost2010Prop50
 90
       50
102
RTVSPost2010PropOp50
 70
     1
102
RTVSPost2010Prop51ColorIndex
 90
      256
102
RTVSPost2010Prop51ColorRGB
 90
-16777216
102
RTVSPost2010PropOp51
 70
     0
102
RTVSPost2010Prop52
140
1.0
102
RTVSPost2010PropOp52
 70
     0
102
RTVSPost2010Prop53
 90
        2
102
RTVSPost2010PropOp53
 70
     1
102
RTVSPost2010Prop54
  1
strokes_ogs.tif
102
RTVSPost2010PropOp54
 70
     1
102
RTVSPost2010Prop55
280
     0
102
RTVSPost2010PropOp55
 70
     1
102
RTVSPost2010Prop56
140
1.0
102
RTVSPost2010PropOp56
 70
     1
102
RTVSPost2010Prop57
140
1.0
102
RTVSPost2010PropOp57
 70
     1
  0
XRECORD
  5
94D
102
{ACAD_REACTORS
330
94C
102
}
330
94C
100
AcDbXrecord
280
     1
102
RTVSPost2010Prop28
280
     0
102
RTVSPost2010PropOp28
 70
     1
102
RTVSPost2010Prop29
280
     1
102
RTVSPost2010PropOp29
 70
     1
102
RTVSPost2010Prop30
280
     1
102
RTVSPost2010PropOp30
 70
     1
102
RTVSPost2010Prop31
280
     0
102
RTVSPost2010PropOp31
 70
     1
102
RTVSPost2010Prop32
280
     0
102
RTVSPost2010PropOp32
 70
     1
102
RTVSPost2010Prop33
280
     0
102
RTVSPost2010PropOp33
 70
     1
102
RTVSPost2010Prop34
280
     0
102
RTVSPost2010PropOp34
 70
     1
102
RTVSPost2010Prop35
280
     0
102
RTVSPost2010PropOp35
 70
     1
102
RTVSPost2010Prop36
280
     0
102
RTVSPost2010PropOp36
 70
     1
102
RTVSPost2010Prop37
 90
       50
102
RTVSPost2010PropOp37
 70
     1
102
RTVSPost2010Prop38
140
0.0
102
RTVSPost2010PropOp38
 70
     1
102
RTVSPost2010Prop39
140
1.0
102
RTVSPost2010PropOp39
 70
     1
102
RTVSPost2010Prop40
 90
        0
102
RTVSPost2010PropOp40
 70
     1
102
RTVSPost2010Prop41ColorIndex
 90
       18
102
RTVSPost2010Prop41ColorRGB
 90
        0
102
RTVSPost2010PropOp41
 70
     1
102
RTVSPost2010Prop42
 90
       50
102
RTVSPost2010PropOp42
 70
     1
102
RTVSPost2010Prop43
 90
        3
102
RTVSPost2010PropOp43
 70
     1
102
RTVSPost2010Prop44ColorIndex
 90
        5
102
RTVSPost2010Prop44ColorRGB
 90
      255
102
RTVSPost2010PropOp44
 70
     1
102
RTVSPost2010Prop45
280
     0
102
RTVSPost2010PropOp45
 70
     1
102
RTVSPost2010Prop46
 90
       50
102
RTVSPost2010PropOp46
 70
     1
102
RTVSPost2010Prop47
 90
       50
102
RTVSPost2010PropOp47
 70
     1
102
RTVSPost2010Prop48
 90
       50
102
RTVSPost2010PropOp48
 70
     1
102
RTVSPost2010Prop49
280
     0
102
RTVSPost2010PropOp49
 70
     1
102
RTVSPost2010Prop50
 90
       50
102
RTVSPost2010PropOp50
 70
     1
102
RTVSPost2010Prop51ColorIndex
 90
      256
102
RTVSPost2010Prop51ColorRGB
 90
-16777216
102
RTVSPost2010PropOp51
 70
     0
102
RTVSPost2010Prop52
140
1.0
102
RTVSPost2010PropOp52
 70
     0
102
RTVSPost2010Prop53
 90
        2
102
RTVSPost2010PropOp53
 70
     1
102
RTVSPost2010Prop54
  1
strokes_ogs.tif
102
RTVSPost2010PropOp54
 70
     1
102
RTVSPost2010Prop55
280
     0
102
RTVSPost2010PropOp55
 70
     1
102
RTVSPost2010Prop56
140
1.0
102
RTVSPost2010PropOp56
 70
     1
102
RTVSPost2010Prop57
140
1.0
102
RTVSPost2010PropOp57
 70
     1
  0
XRECORD
  5
94F
102
{ACAD_REACTORS
330
94E
102
}
330
94E
100
AcDbXrecord
280
     1
102
RTVSPost2010Prop28
280
     0
102
RTVSPost2010PropOp28
 70
     1
102
RTVSPost2010Prop29
280
     1
102
RTVSPost2010PropOp29
 70
     1
102
RTVSPost2010Prop30
280
     1
102
RTVSPost2010PropOp30
 70
     1
102
RTVSPost2010Prop31
280
     0
102
RTVSPost2010PropOp31
 70
     1
102
RTVSPost2010Prop32
280
     0
102
RTVSPost2010PropOp32
 70
     1
102
RTVSPost2010Prop33
280
     0
102
RTVSPost2010PropOp33
 70
     1
102
RTVSPost2010Prop34
280
     0
102
RTVSPost2010PropOp34
 70
     1
102
RTVSPost2010Prop35
280
     0
102
RTVSPost2010PropOp35
 70
     1
102
RTVSPost2010Prop36
280
     0
102
RTVSPost2010PropOp36
 70
     1
102
RTVSPost2010Prop37
 90
       50
102
RTVSPost2010PropOp37
 70
     1
102
RTVSPost2010Prop38
140
0.0
102
RTVSPost2010PropOp38
 70
     1
102
RTVSPost2010Prop39
140
1.0
102
RTVSPost2010PropOp39
 70
     1
102
RTVSPost2010Prop40
 90
        0
102
RTVSPost2010PropOp40
 70
     1
102
RTVSPost2010Prop41ColorIndex
 90
       18
102
RTVSPost2010Prop41ColorRGB
 90
        0
102
RTVSPost2010PropOp41
 70
     1
102
RTVSPost2010Prop42
 90
       50
102
RTVSPost2010PropOp42
 70
     1
102
RTVSPost2010Prop43
 90
        3
102
RTVSPost2010PropOp43
 70
     1
102
RTVSPost2010Prop44ColorIndex
 90
        5
102
RTVSPost2010Prop44ColorRGB
 90
      255
102
RTVSPost2010PropOp44
 70
     1
102
RTVSPost2010Prop45
280
     0
102
RTVSPost2010PropOp45
 70
     1
102
RTVSPost2010Prop46
 90
       50
102
RTVSPost2010PropOp46
 70
     1
102
RTVSPost2010Prop47
 90
       50
102
RTVSPost2010PropOp47
 70
     1
102
RTVSPost2010Prop48
 90
       50
102
RTVSPost2010PropOp48
 70
     1
102
RTVSPost2010Prop49
280
     0
102
RTVSPost2010PropOp49
 70
     1
102
RTVSPost2010Prop50
 90
       50
102
RTVSPost2010PropOp50
 70
     1
102
RTVSPost2010Prop51ColorIndex
 90
      256
102
RTVSPost2010Prop51ColorRGB
 90
-16777216
102
RTVSPost2010PropOp51
 70
     0
102
RTVSPost2010Prop52
140
1.0
102
RTVSPost2010PropOp52
 70
     0
102
RTVSPost2010Prop53
 90
        2
102
RTVSPost2010PropOp53
 70
     1
102
RTVSPost2010Prop54
  1
strokes_ogs.tif
102
RTVSPost2010PropOp54
 70
     1
102
RTVSPost2010Prop55
280
     0
102
RTVSPost2010PropOp55
 70
     1
102
RTVSPost2010Prop56
140
1.0
102
RTVSPost2010PropOp56
 70
     1
102
RTVSPost2010Prop57
140
1.0
102
RTVSPost2010PropOp57
 70
     1
  0
XRECORD
  5
951
102
{ACAD_REACTORS
330
950
102
}
330
950
100
AcDbXrecord
280
     1
102
RTVSPost2010Prop28
280
     0
102
RTVSPost2010PropOp28
 70
     1
102
RTVSPost2010Prop29
280
     1
102
RTVSPost2010PropOp29
 70
     1
102
RTVSPost2010Prop30
280
     1
102
RTVSPost2010PropOp30
 70
     1
102
RTVSPost2010Prop31
280
     0
102
RTVSPost2010PropOp31
 70
     1
102
RTVSPost2010Prop32
280
     0
102
RTVSPost2010PropOp32
 70
     1
102
RTVSPost2010Prop33
280
     0
102
RTVSPost2010PropOp33
 70
     1
102
RTVSPost2010Prop34
280
     0
102
RTVSPost2010PropOp34
 70
     1
102
RTVSPost2010Prop35
280
     0
102
RTVSPost2010PropOp35
 70
     1
102
RTVSPost2010Prop36
280
     0
102
RTVSPost2010PropOp36
 70
     1
102
RTVSPost2010Prop37
 90
       50
102
RTVSPost2010PropOp37
 70
     1
102
RTVSPost2010Prop38
140
0.0
102
RTVSPost2010PropOp38
 70
     1
102
RTVSPost2010Prop39
140
1.0
102
RTVSPost2010PropOp39
 70
     1
102
RTVSPost2010Prop40
 90
        0
102
RTVSPost2010PropOp40
 70
     1
102
RTVSPost2010Prop41ColorIndex
 90
       18
102
RTVSPost2010Prop41ColorRGB
 90
        0
102
RTVSPost2010PropOp41
 70
     1
102
RTVSPost2010Prop42
 90
       50
102
RTVSPost2010PropOp42
 70
     1
102
RTVSPost2010Prop43
 90
        3
102
RTVSPost2010PropOp43
 70
     1
102
RTVSPost2010Prop44ColorIndex
 90
        5
102
RTVSPost2010Prop44ColorRGB
 90
      255
102
RTVSPost2010PropOp44
 70
     1
102
RTVSPost2010Prop45
280
     0
102
RTVSPost2010PropOp45
 70
     1
102
RTVSPost2010Prop46
 90
       50
102
RTVSPost2010PropOp46
 70
     1
102
RTVSPost2010Prop47
 90
       50
102
RTVSPost2010PropOp47
 70
     1
102
RTVSPost2010Prop48
 90
       50
102
RTVSPost2010PropOp48
 70
     1
102
RTVSPost2010Prop49
280
     0
102
RTVSPost2010PropOp49
 70
     1
102
RTVSPost2010Prop50
 90
       50
102
RTVSPost2010PropOp50
 70
     1
102
RTVSPost2010Prop51ColorIndex
 90
      256
102
RTVSPost2010Prop51ColorRGB
 90
-16777216
102
RTVSPost2010PropOp51
 70
     0
102
RTVSPost2010Prop52
140
1.0
102
RTVSPost2010PropOp52
 70
     0
102
RTVSPost2010Prop53
 90
        2
102
RTVSPost2010PropOp53
 70
     1
102
RTVSPost2010Prop54
  1
strokes_ogs.tif
102
RTVSPost2010PropOp54
 70
     1
102
RTVSPost2010Prop55
280
     0
102
RTVSPost2010PropOp55
 70
     1
102
RTVSPost2010Prop56
140
1.0
102
RTVSPost2010PropOp56
 70
     1
102
RTVSPost2010Prop57
140
1.0
102
RTVSPost2010PropOp57
 70
     1
  0
XRECORD
  5
953
102
{ACAD_REACTORS
330
952
102
}
330
952
100
AcDbXrecord
280
     1
102
RTVSPost2010Prop28
280
     0
102
RTVSPost2010PropOp28
 70
     1
102
RTVSPost2010Prop29
280
     1
102
RTVSPost2010PropOp29
 70
     1
102
RTVSPost2010Prop30
280
     1
102
RTVSPost2010PropOp30
 70
     1
102
RTVSPost2010Prop31
280
     0
102
RTVSPost2010PropOp31
 70
     1
102
RTVSPost2010Prop32
280
     0
102
RTVSPost2010PropOp32
 70
     1
102
RTVSPost2010Prop33
280
     0
102
RTVSPost2010PropOp33
 70
     1
102
RTVSPost2010Prop34
280
     0
102
RTVSPost2010PropOp34
 70
     1
102
RTVSPost2010Prop35
280
     0
102
RTVSPost2010PropOp35
 70
     1
102
RTVSPost2010Prop36
280
     0
102
RTVSPost2010PropOp36
 70
     1
102
RTVSPost2010Prop37
 90
       50
102
RTVSPost2010PropOp37
 70
     1
102
RTVSPost2010Prop38
140
0.0
102
RTVSPost2010PropOp38
 70
     1
102
RTVSPost2010Prop39
140
1.0
102
RTVSPost2010PropOp39
 70
     1
102
RTVSPost2010Prop40
 90
        0
102
RTVSPost2010PropOp40
 70
     1
102
RTVSPost2010Prop41ColorIndex
 90
       18
102
RTVSPost2010Prop41ColorRGB
 90
        0
102
RTVSPost2010PropOp41
 70
     1
102
RTVSPost2010Prop42
 90
       50
102
RTVSPost2010PropOp42
 70
     1
102
RTVSPost2010Prop43
 90
        3
102
RTVSPost2010PropOp43
 70
     1
102
RTVSPost2010Prop44ColorIndex
 90
        5
102
RTVSPost2010Prop44ColorRGB
 90
      255
102
RTVSPost2010PropOp44
 70
     1
102
RTVSPost2010Prop45
280
     0
102
RTVSPost2010PropOp45
 70
     1
102
RTVSPost2010Prop46
 90
       50
102
RTVSPost2010PropOp46
 70
     1
102
RTVSPost2010Prop47
 90
       50
102
RTVSPost2010PropOp47
 70
     1
102
RTVSPost2010Prop48
 90
       50
102
RTVSPost2010PropOp48
 70
     1
102
RTVSPost2010Prop49
280
     0
102
RTVSPost2010PropOp49
 70
     1
102
RTVSPost2010Prop50
 90
       50
102
RTVSPost2010PropOp50
 70
     1
102
RTVSPost2010Prop51ColorIndex
 90
      256
102
RTVSPost2010Prop51ColorRGB
 90
-16777216
102
RTVSPost2010PropOp51
 70
     0
102
RTVSPost2010Prop52
140
1.0
102
RTVSPost2010PropOp52
 70
     0
102
RTVSPost2010Prop53
 90
        2
102
RTVSPost2010PropOp53
 70
     1
102
RTVSPost2010Prop54
  1
strokes_ogs.tif
102
RTVSPost2010PropOp54
 70
     1
102
RTVSPost2010Prop55
280
     0
102
RTVSPost2010PropOp55
 70
     1
102
RTVSPost2010Prop56
140
1.0
102
RTVSPost2010PropOp56
 70
     1
102
RTVSPost2010Prop57
140
1.0
102
RTVSPost2010PropOp57
 70
     1
  0
XRECORD
  5
955
102
{ACAD_REACTORS
330
954
102
}
330
954
100
AcDbXrecord
280
     1
102
RTVSPost2010Prop28
280
     0
102
RTVSPost2010PropOp28
 70
     1
102
RTVSPost2010Prop29
280
     1
102
RTVSPost2010PropOp29
 70
     1
102
RTVSPost2010Prop30
280
     1
102
RTVSPost2010PropOp30
 70
     1
102
RTVSPost2010Prop31
280
     0
102
RTVSPost2010PropOp31
 70
     1
102
RTVSPost2010Prop32
280
     0
102
RTVSPost2010PropOp32
 70
     1
102
RTVSPost2010Prop33
280
     0
102
RTVSPost2010PropOp33
 70
     1
102
RTVSPost2010Prop34
280
     0
102
RTVSPost2010PropOp34
 70
     1
102
RTVSPost2010Prop35
280
     0
102
RTVSPost2010PropOp35
 70
     1
102
RTVSPost2010Prop36
280
     0
102
RTVSPost2010PropOp36
 70
     1
102
RTVSPost2010Prop37
 90
       50
102
RTVSPost2010PropOp37
 70
     1
102
RTVSPost2010Prop38
140
0.0
102
RTVSPost2010PropOp38
 70
     1
102
RTVSPost2010Prop39
140
1.0
102
RTVSPost2010PropOp39
 70
     1
102
RTVSPost2010Prop40
 90
        0
102
RTVSPost2010PropOp40
 70
     1
102
RTVSPost2010Prop41ColorIndex
 90
       18
102
RTVSPost2010Prop41ColorRGB
 90
        0
102
RTVSPost2010PropOp41
 70
     1
102
RTVSPost2010Prop42
 90
       50
102
RTVSPost2010PropOp42
 70
     1
102
RTVSPost2010Prop43
 90
        3
102
RTVSPost2010PropOp43
 70
     1
102
RTVSPost2010Prop44ColorIndex
 90
        5
102
RTVSPost2010Prop44ColorRGB
 90
      255
102
RTVSPost2010PropOp44
 70
     1
102
RTVSPost2010Prop45
280
     0
102
RTVSPost2010PropOp45
 70
     1
102
RTVSPost2010Prop46
 90
       50
102
RTVSPost2010PropOp46
 70
     1
102
RTVSPost2010Prop47
 90
       50
102
RTVSPost2010PropOp47
 70
     1
102
RTVSPost2010Prop48
 90
       50
102
RTVSPost2010PropOp48
 70
     1
102
RTVSPost2010Prop49
280
     0
102
RTVSPost2010PropOp49
 70
     1
102
RTVSPost2010Prop50
 90
       50
102
RTVSPost2010PropOp50
 70
     1
102
RTVSPost2010Prop51ColorIndex
 90
      256
102
RTVSPost2010Prop51ColorRGB
 90
-16777216
102
RTVSPost2010PropOp51
 70
     0
102
RTVSPost2010Prop52
140
1.0
102
RTVSPost2010PropOp52
 70
     0
102
RTVSPost2010Prop53
 90
        2
102
RTVSPost2010PropOp53
 70
     1
102
RTVSPost2010Prop54
  1
strokes_ogs.tif
102
RTVSPost2010PropOp54
 70
     1
102
RTVSPost2010Prop55
280
     0
102
RTVSPost2010PropOp55
 70
     1
102
RTVSPost2010Prop56
140
1.0
102
RTVSPost2010PropOp56
 70
     1
102
RTVSPost2010Prop57
140
1.0
102
RTVSPost2010PropOp57
 70
     1
  0
XRECORD
  5
957
102
{ACAD_REACTORS
330
956
102
}
330
956
100
AcDbXrecord
280
     1
102
RTVSPost2010Prop28
280
     0
102
RTVSPost2010PropOp28
 70
     1
102
RTVSPost2010Prop29
280
     1
102
RTVSPost2010PropOp29
 70
     1
102
RTVSPost2010Prop30
280
     1
102
RTVSPost2010PropOp30
 70
     1
102
RTVSPost2010Prop31
280
     0
102
RTVSPost2010PropOp31
 70
     1
102
RTVSPost2010Prop32
280
     0
102
RTVSPost2010PropOp32
 70
     1
102
RTVSPost2010Prop33
280
     0
102
RTVSPost2010PropOp33
 70
     1
102
RTVSPost2010Prop34
280
     0
102
RTVSPost2010PropOp34
 70
     1
102
RTVSPost2010Prop35
280
     0
102
RTVSPost2010PropOp35
 70
     1
102
RTVSPost2010Prop36
280
     0
102
RTVSPost2010PropOp36
 70
     1
102
RTVSPost2010Prop37
 90
       50
102
RTVSPost2010PropOp37
 70
     1
102
RTVSPost2010Prop38
140
0.0
102
RTVSPost2010PropOp38
 70
     1
102
RTVSPost2010Prop39
140
1.0
102
RTVSPost2010PropOp39
 70
     1
102
RTVSPost2010Prop40
 90
        0
102
RTVSPost2010PropOp40
 70
     1
102
RTVSPost2010Prop41ColorIndex
 90
       18
102
RTVSPost2010Prop41ColorRGB
 90
        0
102
RTVSPost2010PropOp41
 70
     1
102
RTVSPost2010Prop42
 90
       50
102
RTVSPost2010PropOp42
 70
     1
102
RTVSPost2010Prop43
 90
        3
102
RTVSPost2010PropOp43
 70
     1
102
RTVSPost2010Prop44ColorIndex
 90
        5
102
RTVSPost2010Prop44ColorRGB
 90
      255
102
RTVSPost2010PropOp44
 70
     1
102
RTVSPost2010Prop45
280
     0
102
RTVSPost2010PropOp45
 70
     1
102
RTVSPost2010Prop46
 90
       50
102
RTVSPost2010PropOp46
 70
     1
102
RTVSPost2010Prop47
 90
       50
102
RTVSPost2010PropOp47
 70
     1
102
RTVSPost2010Prop48
 90
       50
102
RTVSPost2010PropOp48
 70
     1
102
RTVSPost2010Prop49
280
     0
102
RTVSPost2010PropOp49
 70
     1
102
RTVSPost2010Prop50
 90
       50
102
RTVSPost2010PropOp50
 70
     1
102
RTVSPost2010Prop51ColorIndex
 90
      256
102
RTVSPost2010Prop51ColorRGB
 90
-16777216
102
RTVSPost2010PropOp51
 70
     0
102
RTVSPost2010Prop52
140
1.0
102
RTVSPost2010PropOp52
 70
     0
102
RTVSPost2010Prop53
 90
        2
102
RTVSPost2010PropOp53
 70
     1
102
RTVSPost2010Prop54
  1
strokes_ogs.tif
102
RTVSPost2010PropOp54
 70
     1
102
RTVSPost2010Prop55
280
     0
102
RTVSPost2010PropOp55
 70
     1
102
RTVSPost2010Prop56
140
1.0
102
RTVSPost2010PropOp56
 70
     1
102
RTVSPost2010Prop57
140
1.0
102
RTVSPost2010PropOp57
 70
     1
  0
XRECORD
  5
959
102
{ACAD_REACTORS
330
958
102
}
330
958
100
AcDbXrecord
280
     1
102
RTVSPost2010Prop28
280
     0
102
RTVSPost2010PropOp28
 70
     1
102
RTVSPost2010Prop29
280
     1
102
RTVSPost2010PropOp29
 70
     1
102
RTVSPost2010Prop30
280
     1
102
RTVSPost2010PropOp30
 70
     1
102
RTVSPost2010Prop31
280
     0
102
RTVSPost2010PropOp31
 70
     1
102
RTVSPost2010Prop32
280
     0
102
RTVSPost2010PropOp32
 70
     1
102
RTVSPost2010Prop33
280
     0
102
RTVSPost2010PropOp33
 70
     1
102
RTVSPost2010Prop34
280
     0
102
RTVSPost2010PropOp34
 70
     1
102
RTVSPost2010Prop35
280
     0
102
RTVSPost2010PropOp35
 70
     1
102
RTVSPost2010Prop36
280
     0
102
RTVSPost2010PropOp36
 70
     1
102
RTVSPost2010Prop37
 90
       50
102
RTVSPost2010PropOp37
 70
     1
102
RTVSPost2010Prop38
140
0.0
102
RTVSPost2010PropOp38
 70
     1
102
RTVSPost2010Prop39
140
1.0
102
RTVSPost2010PropOp39
 70
     1
102
RTVSPost2010Prop40
 90
        0
102
RTVSPost2010PropOp40
 70
     1
102
RTVSPost2010Prop41ColorIndex
 90
       18
102
RTVSPost2010Prop41ColorRGB
 90
        0
102
RTVSPost2010PropOp41
 70
     1
102
RTVSPost2010Prop42
 90
       50
102
RTVSPost2010PropOp42
 70
     1
102
RTVSPost2010Prop43
 90
        3
102
RTVSPost2010PropOp43
 70
     1
102
RTVSPost2010Prop44ColorIndex
 90
        5
102
RTVSPost2010Prop44ColorRGB
 90
      255
102
RTVSPost2010PropOp44
 70
     1
102
RTVSPost2010Prop45
280
     0
102
RTVSPost2010PropOp45
 70
     1
102
RTVSPost2010Prop46
 90
       50
102
RTVSPost2010PropOp46
 70
     1
102
RTVSPost2010Prop47
 90
       50
102
RTVSPost2010PropOp47
 70
     1
102
RTVSPost2010Prop48
 90
       50
102
RTVSPost2010PropOp48
 70
     1
102
RTVSPost2010Prop49
280
     0
102
RTVSPost2010PropOp49
 70
     1
102
RTVSPost2010Prop50
 90
       50
102
RTVSPost2010PropOp50
 70
     1
102
RTVSPost2010Prop51ColorIndex
 90
      256
102
RTVSPost2010Prop51ColorRGB
 90
-16777216
102
RTVSPost2010PropOp51
 70
     0
102
RTVSPost2010Prop52
140
1.0
102
RTVSPost2010PropOp52
 70
     0
102
RTVSPost2010Prop53
 90
        2
102
RTVSPost2010PropOp53
 70
     1
102
RTVSPost2010Prop54
  1
strokes_ogs.tif
102
RTVSPost2010PropOp54
 70
     1
102
RTVSPost2010Prop55
280
     0
102
RTVSPost2010PropOp55
 70
     1
102
RTVSPost2010Prop56
140
1.0
102
RTVSPost2010PropOp56
 70
     1
102
RTVSPost2010Prop57
140
1.0
102
RTVSPost2010PropOp57
 70
     1
  0
XRECORD
  5
95B
102
{ACAD_REACTORS
330
95A
102
}
330
95A
100
AcDbXrecord
280
     1
102
RTVSPost2010Prop28
280
     0
102
RTVSPost2010PropOp28
 70
     1
102
RTVSPost2010Prop29
280
     1
102
RTVSPost2010PropOp29
 70
     1
102
RTVSPost2010Prop30
280
     1
102
RTVSPost2010PropOp30
 70
     1
102
RTVSPost2010Prop31
280
     0
102
RTVSPost2010PropOp31
 70
     1
102
RTVSPost2010Prop32
280
     0
102
RTVSPost2010PropOp32
 70
     1
102
RTVSPost2010Prop33
280
     0
102
RTVSPost2010PropOp33
 70
     1
102
RTVSPost2010Prop34
280
     0
102
RTVSPost2010PropOp34
 70
     1
102
RTVSPost2010Prop35
280
     0
102
RTVSPost2010PropOp35
 70
     1
102
RTVSPost2010Prop36
280
     0
102
RTVSPost2010PropOp36
 70
     1
102
RTVSPost2010Prop37
 90
       50
102
RTVSPost2010PropOp37
 70
     1
102
RTVSPost2010Prop38
140
0.0
102
RTVSPost2010PropOp38
 70
     1
102
RTVSPost2010Prop39
140
1.0
102
RTVSPost2010PropOp39
 70
     1
102
RTVSPost2010Prop40
 90
        0
102
RTVSPost2010PropOp40
 70
     1
102
RTVSPost2010Prop41ColorIndex
 90
       18
102
RTVSPost2010Prop41ColorRGB
 90
        0
102
RTVSPost2010PropOp41
 70
     1
102
RTVSPost2010Prop42
 90
       50
102
RTVSPost2010PropOp42
 70
     1
102
RTVSPost2010Prop43
 90
        3
102
RTVSPost2010PropOp43
 70
     1
102
RTVSPost2010Prop44ColorIndex
 90
        5
102
RTVSPost2010Prop44ColorRGB
 90
      255
102
RTVSPost2010PropOp44
 70
     1
102
RTVSPost2010Prop45
280
     0
102
RTVSPost2010PropOp45
 70
     1
102
RTVSPost2010Prop46
 90
       50
102
RTVSPost2010PropOp46
 70
     1
102
RTVSPost2010Prop47
 90
       50
102
RTVSPost2010PropOp47
 70
     1
102
RTVSPost2010Prop48
 90
       50
102
RTVSPost2010PropOp48
 70
     1
102
RTVSPost2010Prop49
280
     0
102
RTVSPost2010PropOp49
 70
     1
102
RTVSPost2010Prop50
 90
       50
102
RTVSPost2010PropOp50
 70
     1
102
RTVSPost2010Prop51ColorIndex
 90
      256
102
RTVSPost2010Prop51ColorRGB
 90
-16777216
102
RTVSPost2010PropOp51
 70
     0
102
RTVSPost2010Prop52
140
1.0
102
RTVSPost2010PropOp52
 70
     0
102
RTVSPost2010Prop53
 90
        2
102
RTVSPost2010PropOp53
 70
     1
102
RTVSPost2010Prop54
  1
strokes_ogs.tif
102
RTVSPost2010PropOp54
 70
     1
102
RTVSPost2010Prop55
280
     0
102
RTVSPost2010PropOp55
 70
     1
102
RTVSPost2010Prop56
140
1.0
102
RTVSPost2010PropOp56
 70
     1
102
RTVSPost2010Prop57
140
1.0
102
RTVSPost2010PropOp57
 70
     1
  0
XRECORD
  5
95D
102
{ACAD_REACTORS
330
95C
102
}
330
95C
100
AcDbXrecord
280
     1
102
RTVSPost2010Prop28
280
     0
102
RTVSPost2010PropOp28
 70
     1
102
RTVSPost2010Prop29
280
     1
102
RTVSPost2010PropOp29
 70
     1
102
RTVSPost2010Prop30
280
     1
102
RTVSPost2010PropOp30
 70
     1
102
RTVSPost2010Prop31
280
     0
102
RTVSPost2010PropOp31
 70
     1
102
RTVSPost2010Prop32
280
     0
102
RTVSPost2010PropOp32
 70
     1
102
RTVSPost2010Prop33
280
     0
102
RTVSPost2010PropOp33
 70
     1
102
RTVSPost2010Prop34
280
     0
102
RTVSPost2010PropOp34
 70
     1
102
RTVSPost2010Prop35
280
     0
102
RTVSPost2010PropOp35
 70
     1
102
RTVSPost2010Prop36
280
     0
102
RTVSPost2010PropOp36
 70
     1
102
RTVSPost2010Prop37
 90
       50
102
RTVSPost2010PropOp37
 70
     1
102
RTVSPost2010Prop38
140
0.0
102
RTVSPost2010PropOp38
 70
     1
102
RTVSPost2010Prop39
140
1.0
102
RTVSPost2010PropOp39
 70
     1
102
RTVSPost2010Prop40
 90
        0
102
RTVSPost2010PropOp40
 70
     1
102
RTVSPost2010Prop41ColorIndex
 90
       18
102
RTVSPost2010Prop41ColorRGB
 90
        0
102
RTVSPost2010PropOp41
 70
     1
102
RTVSPost2010Prop42
 90
       50
102
RTVSPost2010PropOp42
 70
     1
102
RTVSPost2010Prop43
 90
        3
102
RTVSPost2010PropOp43
 70
     1
102
RTVSPost2010Prop44ColorIndex
 90
        5
102
RTVSPost2010Prop44ColorRGB
 90
      255
102
RTVSPost2010PropOp44
 70
     1
102
RTVSPost2010Prop45
280
     0
102
RTVSPost2010PropOp45
 70
     1
102
RTVSPost2010Prop46
 90
       50
102
RTVSPost2010PropOp46
 70
     1
102
RTVSPost2010Prop47
 90
       50
102
RTVSPost2010PropOp47
 70
     1
102
RTVSPost2010Prop48
 90
       50
102
RTVSPost2010PropOp48
 70
     1
102
RTVSPost2010Prop49
280
     0
102
RTVSPost2010PropOp49
 70
     1
102
RTVSPost2010Prop50
 90
       50
102
RTVSPost2010PropOp50
 70
     1
102
RTVSPost2010Prop51ColorIndex
 90
      256
102
RTVSPost2010Prop51ColorRGB
 90
-16777216
102
RTVSPost2010PropOp51
 70
     0
102
RTVSPost2010Prop52
140
1.0
102
RTVSPost2010PropOp52
 70
     0
102
RTVSPost2010Prop53
 90
        2
102
RTVSPost2010PropOp53
 70
     1
102
RTVSPost2010Prop54
  1
strokes_ogs.tif
102
RTVSPost2010PropOp54
 70
     1
102
RTVSPost2010Prop55
280
     0
102
RTVSPost2010PropOp55
 70
     1
102
RTVSPost2010Prop56
140
1.0
102
RTVSPost2010PropOp56
 70
     1
102
RTVSPost2010Prop57
140
1.0
102
RTVSPost2010PropOp57
 70
     1
  0
XRECORD
  5
95F
102
{ACAD_REACTORS
330
95E
102
}
330
95E
100
AcDbXrecord
280
     1
102
RTVSPost2010Prop28
280
     0
102
RTVSPost2010PropOp28
 70
     1
102
RTVSPost2010Prop29
280
     1
102
RTVSPost2010PropOp29
 70
     1
102
RTVSPost2010Prop30
280
     1
102
RTVSPost2010PropOp30
 70
     1
102
RTVSPost2010Prop31
280
     0
102
RTVSPost2010PropOp31
 70
     1
102
RTVSPost2010Prop32
280
     0
102
RTVSPost2010PropOp32
 70
     1
102
RTVSPost2010Prop33
280
     0
102
RTVSPost2010PropOp33
 70
     1
102
RTVSPost2010Prop34
280
     0
102
RTVSPost2010PropOp34
 70
     1
102
RTVSPost2010Prop35
280
     0
102
RTVSPost2010PropOp35
 70
     1
102
RTVSPost2010Prop36
280
     0
102
RTVSPost2010PropOp36
 70
     1
102
RTVSPost2010Prop37
 90
       50
102
RTVSPost2010PropOp37
 70
     1
102
RTVSPost2010Prop38
140
0.0
102
RTVSPost2010PropOp38
 70
     1
102
RTVSPost2010Prop39
140
1.0
102
RTVSPost2010PropOp39
 70
     1
102
RTVSPost2010Prop40
 90
        0
102
RTVSPost2010PropOp40
 70
     1
102
RTVSPost2010Prop41ColorIndex
 90
       18
102
RTVSPost2010Prop41ColorRGB
 90
        0
102
RTVSPost2010PropOp41
 70
     1
102
RTVSPost2010Prop42
 90
       50
102
RTVSPost2010PropOp42
 70
     1
102
RTVSPost2010Prop43
 90
        3
102
RTVSPost2010PropOp43
 70
     1
102
RTVSPost2010Prop44ColorIndex
 90
        5
102
RTVSPost2010Prop44ColorRGB
 90
      255
102
RTVSPost2010PropOp44
 70
     1
102
RTVSPost2010Prop45
280
     0
102
RTVSPost2010PropOp45
 70
     1
102
RTVSPost2010Prop46
 90
       50
102
RTVSPost2010PropOp46
 70
     1
102
RTVSPost2010Prop47
 90
       50
102
RTVSPost2010PropOp47
 70
     1
102
RTVSPost2010Prop48
 90
       50
102
RTVSPost2010PropOp48
 70
     1
102
RTVSPost2010Prop49
280
     0
102
RTVSPost2010PropOp49
 70
     1
102
RTVSPost2010Prop50
 90
       50
102
RTVSPost2010PropOp50
 70
     1
102
RTVSPost2010Prop51ColorIndex
 90
      256
102
RTVSPost2010Prop51ColorRGB
 90
-16777216
102
RTVSPost2010PropOp51
 70
     0
102
RTVSPost2010Prop52
140
1.0
102
RTVSPost2010PropOp52
 70
     0
102
RTVSPost2010Prop53
 90
        2
102
RTVSPost2010PropOp53
 70
     1
102
RTVSPost2010Prop54
  1
strokes_ogs.tif
102
RTVSPost2010PropOp54
 70
     1
102
RTVSPost2010Prop55
280
     0
102
RTVSPost2010PropOp55
 70
     1
102
RTVSPost2010Prop56
140
1.0
102
RTVSPost2010PropOp56
 70
     1
102
RTVSPost2010Prop57
140
1.0
102
RTVSPost2010PropOp57
 70
     1
  0
XRECORD
  5
961
102
{ACAD_REACTORS
330
960
102
}
330
960
100
AcDbXrecord
280
     1
102
RTVSPost2010Prop28
280
     0
102
RTVSPost2010PropOp28
 70
     1
102
RTVSPost2010Prop29
280
     1
102
RTVSPost2010PropOp29
 70
     1
102
RTVSPost2010Prop30
280
     1
102
RTVSPost2010PropOp30
 70
     1
102
RTVSPost2010Prop31
280
     0
102
RTVSPost2010PropOp31
 70
     1
102
RTVSPost2010Prop32
280
     0
102
RTVSPost2010PropOp32
 70
     1
102
RTVSPost2010Prop33
280
     0
102
RTVSPost2010PropOp33
 70
     1
102
RTVSPost2010Prop34
280
     0
102
RTVSPost2010PropOp34
 70
     1
102
RTVSPost2010Prop35
280
     0
102
RTVSPost2010PropOp35
 70
     1
102
RTVSPost2010Prop36
280
     0
102
RTVSPost2010PropOp36
 70
     1
102
RTVSPost2010Prop37
 90
       50
102
RTVSPost2010PropOp37
 70
     1
102
RTVSPost2010Prop38
140
0.0
102
RTVSPost2010PropOp38
 70
     1
102
RTVSPost2010Prop39
140
1.0
102
RTVSPost2010PropOp39
 70
     1
102
RTVSPost2010Prop40
 90
        0
102
RTVSPost2010PropOp40
 70
     1
102
RTVSPost2010Prop41ColorIndex
 90
       18
102
RTVSPost2010Prop41ColorRGB
 90
        0
102
RTVSPost2010PropOp41
 70
     1
102
RTVSPost2010Prop42
 90
       50
102
RTVSPost2010PropOp42
 70
     1
102
RTVSPost2010Prop43
 90
        3
102
RTVSPost2010PropOp43
 70
     1
102
RTVSPost2010Prop44ColorIndex
 90
        5
102
RTVSPost2010Prop44ColorRGB
 90
      255
102
RTVSPost2010PropOp44
 70
     1
102
RTVSPost2010Prop45
280
     0
102
RTVSPost2010PropOp45
 70
     1
102
RTVSPost2010Prop46
 90
       50
102
RTVSPost2010PropOp46
 70
     1
102
RTVSPost2010Prop47
 90
       50
102
RTVSPost2010PropOp47
 70
     1
102
RTVSPost2010Prop48
 90
       50
102
RTVSPost2010PropOp48
 70
     1
102
RTVSPost2010Prop49
280
     0
102
RTVSPost2010PropOp49
 70
     1
102
RTVSPost2010Prop50
 90
       50
102
RTVSPost2010PropOp50
 70
     1
102
RTVSPost2010Prop51ColorIndex
 90
      256
102
RTVSPost2010Prop51ColorRGB
 90
-16777216
102
RTVSPost2010PropOp51
 70
     0
102
RTVSPost2010Prop52
140
1.0
102
RTVSPost2010PropOp52
 70
     0
102
RTVSPost2010Prop53
 90
        2
102
RTVSPost2010PropOp53
 70
     1
102
RTVSPost2010Prop54
  1
strokes_ogs.tif
102
RTVSPost2010PropOp54
 70
     1
102
RTVSPost2010Prop55
280
     0
102
RTVSPost2010PropOp55
 70
     1
102
RTVSPost2010Prop56
140
1.0
102
RTVSPost2010PropOp56
 70
     1
102
RTVSPost2010Prop57
140
1.0
102
RTVSPost2010PropOp57
 70
     1
  0
XRECORD
  5
963
102
{ACAD_REACTORS
330
962
102
}
330
962
100
AcDbXrecord
280
     1
102
RTVSPost2010Prop28
280
     0
102
RTVSPost2010PropOp28
 70
     1
102
RTVSPost2010Prop29
280
     1
102
RTVSPost2010PropOp29
 70
     1
102
RTVSPost2010Prop30
280
     1
102
RTVSPost2010PropOp30
 70
     1
102
RTVSPost2010Prop31
280
     0
102
RTVSPost2010PropOp31
 70
     1
102
RTVSPost2010Prop32
280
     0
102
RTVSPost2010PropOp32
 70
     1
102
RTVSPost2010Prop33
280
     0
102
RTVSPost2010PropOp33
 70
     1
102
RTVSPost2010Prop34
280
     0
102
RTVSPost2010PropOp34
 70
     1
102
RTVSPost2010Prop35
280
     0
102
RTVSPost2010PropOp35
 70
     1
102
RTVSPost2010Prop36
280
     0
102
RTVSPost2010PropOp36
 70
     1
102
RTVSPost2010Prop37
 90
       50
102
RTVSPost2010PropOp37
 70
     1
102
RTVSPost2010Prop38
140
0.0
102
RTVSPost2010PropOp38
 70
     1
102
RTVSPost2010Prop39
140
1.0
102
RTVSPost2010PropOp39
 70
     1
102
RTVSPost2010Prop40
 90
        0
102
RTVSPost2010PropOp40
 70
     1
102
RTVSPost2010Prop41ColorIndex
 90
       18
102
RTVSPost2010Prop41ColorRGB
 90
        0
102
RTVSPost2010PropOp41
 70
     1
102
RTVSPost2010Prop42
 90
       50
102
RTVSPost2010PropOp42
 70
     1
102
RTVSPost2010Prop43
 90
        3
102
RTVSPost2010PropOp43
 70
     1
102
RTVSPost2010Prop44ColorIndex
 90
        5
102
RTVSPost2010Prop44ColorRGB
 90
      255
102
RTVSPost2010PropOp44
 70
     1
102
RTVSPost2010Prop45
280
     0
102
RTVSPost2010PropOp45
 70
     1
102
RTVSPost2010Prop46
 90
       50
102
RTVSPost2010PropOp46
 70
     1
102
RTVSPost2010Prop47
 90
       50
102
RTVSPost2010PropOp47
 70
     1
102
RTVSPost2010Prop48
 90
       50
102
RTVSPost2010PropOp48
 70
     1
102
RTVSPost2010Prop49
280
     0
102
RTVSPost2010PropOp49
 70
     1
102
RTVSPost2010Prop50
 90
       50
102
RTVSPost2010PropOp50
 70
     1
102
RTVSPost2010Prop51ColorIndex
 90
      256
102
RTVSPost2010Prop51ColorRGB
 90
-16777216
102
RTVSPost2010PropOp51
 70
     0
102
RTVSPost2010Prop52
140
1.0
102
RTVSPost2010PropOp52
 70
     0
102
RTVSPost2010Prop53
 90
        2
102
RTVSPost2010PropOp53
 70
     1
102
RTVSPost2010Prop54
  1
strokes_ogs.tif
102
RTVSPost2010PropOp54
 70
     1
102
RTVSPost2010Prop55
280
     0
102
RTVSPost2010PropOp55
 70
     1
102
RTVSPost2010Prop56
140
1.0
102
RTVSPost2010PropOp56
 70
     1
102
RTVSPost2010Prop57
140
1.0
102
RTVSPost2010PropOp57
 70
     1
  0
XRECORD
  5
965
102
{ACAD_REACTORS
330
964
102
}
330
964
100
AcDbXrecord
280
     1
102
RTVSPost2010Prop28
280
     0
102
RTVSPost2010PropOp28
 70
     1
102
RTVSPost2010Prop29
280
     1
102
RTVSPost2010PropOp29
 70
     1
102
RTVSPost2010Prop30
280
     1
102
RTVSPost2010PropOp30
 70
     1
102
RTVSPost2010Prop31
280
     0
102
RTVSPost2010PropOp31
 70
     1
102
RTVSPost2010Prop32
280
     0
102
RTVSPost2010PropOp32
 70
     1
102
RTVSPost2010Prop33
280
     0
102
RTVSPost2010PropOp33
 70
     1
102
RTVSPost2010Prop34
280
     0
102
RTVSPost2010PropOp34
 70
     1
102
RTVSPost2010Prop35
280
     0
102
RTVSPost2010PropOp35
 70
     1
102
RTVSPost2010Prop36
280
     0
102
RTVSPost2010PropOp36
 70
     1
102
RTVSPost2010Prop37
 90
       50
102
RTVSPost2010PropOp37
 70
     1
102
RTVSPost2010Prop38
140
0.0
102
RTVSPost2010PropOp38
 70
     1
102
RTVSPost2010Prop39
140
1.0
102
RTVSPost2010PropOp39
 70
     1
102
RTVSPost2010Prop40
 90
        0
102
RTVSPost2010PropOp40
 70
     1
102
RTVSPost2010Prop41ColorIndex
 90
       18
102
RTVSPost2010Prop41ColorRGB
 90
        0
102
RTVSPost2010PropOp41
 70
     1
102
RTVSPost2010Prop42
 90
       50
102
RTVSPost2010PropOp42
 70
     1
102
RTVSPost2010Prop43
 90
        3
102
RTVSPost2010PropOp43
 70
     1
102
RTVSPost2010Prop44ColorIndex
 90
        5
102
RTVSPost2010Prop44ColorRGB
 90
      255
102
RTVSPost2010PropOp44
 70
     1
102
RTVSPost2010Prop45
280
     0
102
RTVSPost2010PropOp45
 70
     1
102
RTVSPost2010Prop46
 90
       50
102
RTVSPost2010PropOp46
 70
     1
102
RTVSPost2010Prop47
 90
       50
102
RTVSPost2010PropOp47
 70
     1
102
RTVSPost2010Prop48
 90
       50
102
RTVSPost2010PropOp48
 70
     1
102
RTVSPost2010Prop49
280
     0
102
RTVSPost2010PropOp49
 70
     1
102
RTVSPost2010Prop50
 90
       50
102
RTVSPost2010PropOp50
 70
     1
102
RTVSPost2010Prop51ColorIndex
 90
      256
102
RTVSPost2010Prop51ColorRGB
 90
-16777216
102
RTVSPost2010PropOp51
 70
     0
102
RTVSPost2010Prop52
140
1.0
102
RTVSPost2010PropOp52
 70
     0
102
RTVSPost2010Prop53
 90
        2
102
RTVSPost2010PropOp53
 70
     1
102
RTVSPost2010Prop54
  1
strokes_ogs.tif
102
RTVSPost2010PropOp54
 70
     1
102
RTVSPost2010Prop55
280
     0
102
RTVSPost2010PropOp55
 70
     1
102
RTVSPost2010Prop56
140
1.0
102
RTVSPost2010PropOp56
 70
     1
102
RTVSPost2010Prop57
140
1.0
102
RTVSPost2010PropOp57
 70
     1
  0
XRECORD
  5
967
102
{ACAD_REACTORS
330
966
102
}
330
966
100
AcDbXrecord
280
     1
102
RTVSPost2010Prop28
280
     0
102
RTVSPost2010PropOp28
 70
     1
102
RTVSPost2010Prop29
280
     1
102
RTVSPost2010PropOp29
 70
     1
102
RTVSPost2010Prop30
280
     1
102
RTVSPost2010PropOp30
 70
     1
102
RTVSPost2010Prop31
280
     0
102
RTVSPost2010PropOp31
 70
     1
102
RTVSPost2010Prop32
280
     0
102
RTVSPost2010PropOp32
 70
     1
102
RTVSPost2010Prop33
280
     0
102
RTVSPost2010PropOp33
 70
     1
102
RTVSPost2010Prop34
280
     0
102
RTVSPost2010PropOp34
 70
     1
102
RTVSPost2010Prop35
280
     0
102
RTVSPost2010PropOp35
 70
     1
102
RTVSPost2010Prop36
280
     0
102
RTVSPost2010PropOp36
 70
     1
102
RTVSPost2010Prop37
 90
       50
102
RTVSPost2010PropOp37
 70
     1
102
RTVSPost2010Prop38
140
0.0
102
RTVSPost2010PropOp38
 70
     1
102
RTVSPost2010Prop39
140
1.0
102
RTVSPost2010PropOp39
 70
     1
102
RTVSPost2010Prop40
 90
        0
102
RTVSPost2010PropOp40
 70
     1
102
RTVSPost2010Prop41ColorIndex
 90
       18
102
RTVSPost2010Prop41ColorRGB
 90
        0
102
RTVSPost2010PropOp41
 70
     1
102
RTVSPost2010Prop42
 90
       50
102
RTVSPost2010PropOp42
 70
     1
102
RTVSPost2010Prop43
 90
        3
102
RTVSPost2010PropOp43
 70
     1
102
RTVSPost2010Prop44ColorIndex
 90
        5
102
RTVSPost2010Prop44ColorRGB
 90
      255
102
RTVSPost2010PropOp44
 70
     1
102
RTVSPost2010Prop45
280
     0
102
RTVSPost2010PropOp45
 70
     1
102
RTVSPost2010Prop46
 90
       50
102
RTVSPost2010PropOp46
 70
     1
102
RTVSPost2010Prop47
 90
       50
102
RTVSPost2010PropOp47
 70
     1
102
RTVSPost2010Prop48
 90
       50
102
RTVSPost2010PropOp48
 70
     1
102
RTVSPost2010Prop49
280
     0
102
RTVSPost2010PropOp49
 70
     1
102
RTVSPost2010Prop50
 90
       50
102
RTVSPost2010PropOp50
 70
     1
102
RTVSPost2010Prop51ColorIndex
 90
      256
102
RTVSPost2010Prop51ColorRGB
 90
-16777216
102
RTVSPost2010PropOp51
 70
     0
102
RTVSPost2010Prop52
140
1.0
102
RTVSPost2010PropOp52
 70
     0
102
RTVSPost2010Prop53
 90
        2
102
RTVSPost2010PropOp53
 70
     1
102
RTVSPost2010Prop54
  1
strokes_ogs.tif
102
RTVSPost2010PropOp54
 70
     1
102
RTVSPost2010Prop55
280
     0
102
RTVSPost2010PropOp55
 70
     1
102
RTVSPost2010Prop56
140
1.0
102
RTVSPost2010PropOp56
 70
     1
102
RTVSPost2010Prop57
140
1.0
102
RTVSPost2010PropOp57
 70
     1
  0
XRECORD
  5
969
102
{ACAD_REACTORS
330
968
102
}
330
968
100
AcDbXrecord
280
     1
102
RTVSPost2010Prop28
280
     0
102
RTVSPost2010PropOp28
 70
     1
102
RTVSPost2010Prop29
280
     1
102
RTVSPost2010PropOp29
 70
     1
102
RTVSPost2010Prop30
280
     1
102
RTVSPost2010PropOp30
 70
     1
102
RTVSPost2010Prop31
280
     0
102
RTVSPost2010PropOp31
 70
     1
102
RTVSPost2010Prop32
280
     0
102
RTVSPost2010PropOp32
 70
     1
102
RTVSPost2010Prop33
280
     0
102
RTVSPost2010PropOp33
 70
     1
102
RTVSPost2010Prop34
280
     0
102
RTVSPost2010PropOp34
 70
     1
102
RTVSPost2010Prop35
280
     0
102
RTVSPost2010PropOp35
 70
     1
102
RTVSPost2010Prop36
280
     0
102
RTVSPost2010PropOp36
 70
     1
102
RTVSPost2010Prop37
 90
       50
102
RTVSPost2010PropOp37
 70
     1
102
RTVSPost2010Prop38
140
0.0
102
RTVSPost2010PropOp38
 70
     1
102
RTVSPost2010Prop39
140
1.0
102
RTVSPost2010PropOp39
 70
     1
102
RTVSPost2010Prop40
 90
        0
102
RTVSPost2010PropOp40
 70
     1
102
RTVSPost2010Prop41ColorIndex
 90
       18
102
RTVSPost2010Prop41ColorRGB
 90
        0
102
RTVSPost2010PropOp41
 70
     1
102
RTVSPost2010Prop42
 90
       50
102
RTVSPost2010PropOp42
 70
     1
102
RTVSPost2010Prop43
 90
        3
102
RTVSPost2010PropOp43
 70
     1
102
RTVSPost2010Prop44ColorIndex
 90
        5
102
RTVSPost2010Prop44ColorRGB
 90
      255
102
RTVSPost2010PropOp44
 70
     1
102
RTVSPost2010Prop45
280
     0
102
RTVSPost2010PropOp45
 70
     1
102
RTVSPost2010Prop46
 90
       50
102
RTVSPost2010PropOp46
 70
     1
102
RTVSPost2010Prop47
 90
       50
102
RTVSPost2010PropOp47
 70
     1
102
RTVSPost2010Prop48
 90
       50
102
RTVSPost2010PropOp48
 70
     1
102
RTVSPost2010Prop49
280
     0
102
RTVSPost2010PropOp49
 70
     1
102
RTVSPost2010Prop50
 90
       50
102
RTVSPost2010PropOp50
 70
     1
102
RTVSPost2010Prop51ColorIndex
 90
      256
102
RTVSPost2010Prop51ColorRGB
 90
-16777216
102
RTVSPost2010PropOp51
 70
     0
102
RTVSPost2010Prop52
140
1.0
102
RTVSPost2010PropOp52
 70
     0
102
RTVSPost2010Prop53
 90
        2
102
RTVSPost2010PropOp53
 70
     1
102
RTVSPost2010Prop54
  1
strokes_ogs.tif
102
RTVSPost2010PropOp54
 70
     1
102
RTVSPost2010Prop55
280
     0
102
RTVSPost2010PropOp55
 70
     1
102
RTVSPost2010Prop56
140
1.0
102
RTVSPost2010PropOp56
 70
     1
102
RTVSPost2010Prop57
140
1.0
102
RTVSPost2010PropOp57
 70
     1
  0
XRECORD
  5
96B
102
{ACAD_REACTORS
330
96A
102
}
330
96A
100
AcDbXrecord
280
     1
102
RTVSPost2010Prop28
280
     0
102
RTVSPost2010PropOp28
 70
     1
102
RTVSPost2010Prop29
280
     1
102
RTVSPost2010PropOp29
 70
     1
102
RTVSPost2010Prop30
280
     1
102
RTVSPost2010PropOp30
 70
     1
102
RTVSPost2010Prop31
280
     0
102
RTVSPost2010PropOp31
 70
     1
102
RTVSPost2010Prop32
280
     0
102
RTVSPost2010PropOp32
 70
     1
102
RTVSPost2010Prop33
280
     0
102
RTVSPost2010PropOp33
 70
     1
102
RTVSPost2010Prop34
280
     0
102
RTVSPost2010PropOp34
 70
     1
102
RTVSPost2010Prop35
280
     0
102
RTVSPost2010PropOp35
 70
     1
102
RTVSPost2010Prop36
280
     0
102
RTVSPost2010PropOp36
 70
     1
102
RTVSPost2010Prop37
 90
       50
102
RTVSPost2010PropOp37
 70
     1
102
RTVSPost2010Prop38
140
0.0
102
RTVSPost2010PropOp38
 70
     1
102
RTVSPost2010Prop39
140
1.0
102
RTVSPost2010PropOp39
 70
     1
102
RTVSPost2010Prop40
 90
        0
102
RTVSPost2010PropOp40
 70
     1
102
RTVSPost2010Prop41ColorIndex
 90
       18
102
RTVSPost2010Prop41ColorRGB
 90
        0
102
RTVSPost2010PropOp41
 70
     1
102
RTVSPost2010Prop42
 90
       50
102
RTVSPost2010PropOp42
 70
     1
102
RTVSPost2010Prop43
 90
        3
102
RTVSPost2010PropOp43
 70
     1
102
RTVSPost2010Prop44ColorIndex
 90
        5
102
RTVSPost2010Prop44ColorRGB
 90
      255
102
RTVSPost2010PropOp44
 70
     1
102
RTVSPost2010Prop45
280
     0
102
RTVSPost2010PropOp45
 70
     1
102
RTVSPost2010Prop46
 90
       50
102
RTVSPost2010PropOp46
 70
     1
102
RTVSPost2010Prop47
 90
       50
102
RTVSPost2010PropOp47
 70
     1
102
RTVSPost2010Prop48
 90
       50
102
RTVSPost2010PropOp48
 70
     1
102
RTVSPost2010Prop49
280
     0
102
RTVSPost2010PropOp49
 70
     1
102
RTVSPost2010Prop50
 90
       50
102
RTVSPost2010PropOp50
 70
     1
102
RTVSPost2010Prop51ColorIndex
 90
      256
102
RTVSPost2010Prop51ColorRGB
 90
-16777216
102
RTVSPost2010PropOp51
 70
     0
102
RTVSPost2010Prop52
140
1.0
102
RTVSPost2010PropOp52
 70
     0
102
RTVSPost2010Prop53
 90
        2
102
RTVSPost2010PropOp53
 70
     1
102
RTVSPost2010Prop54
  1
strokes_ogs.tif
102
RTVSPost2010PropOp54
 70
     1
102
RTVSPost2010Prop55
280
     0
102
RTVSPost2010PropOp55
 70
     1
102
RTVSPost2010Prop56
140
1.0
102
RTVSPost2010PropOp56
 70
     1
102
RTVSPost2010Prop57
140
1.0
102
RTVSPost2010PropOp57
 70
     1
  0
XRECORD
  5
96D
102
{ACAD_REACTORS
330
96C
102
}
330
96C
100
AcDbXrecord
280
     1
102
RTVSPost2010Prop28
280
     0
102
RTVSPost2010PropOp28
 70
     1
102
RTVSPost2010Prop29
280
     1
102
RTVSPost2010PropOp29
 70
     1
102
RTVSPost2010Prop30
280
     1
102
RTVSPost2010PropOp30
 70
     1
102
RTVSPost2010Prop31
280
     0
102
RTVSPost2010PropOp31
 70
     1
102
RTVSPost2010Prop32
280
     0
102
RTVSPost2010PropOp32
 70
     1
102
RTVSPost2010Prop33
280
     0
102
RTVSPost2010PropOp33
 70
     1
102
RTVSPost2010Prop34
280
     0
102
RTVSPost2010PropOp34
 70
     1
102
RTVSPost2010Prop35
280
     0
102
RTVSPost2010PropOp35
 70
     1
102
RTVSPost2010Prop36
280
     0
102
RTVSPost2010PropOp36
 70
     1
102
RTVSPost2010Prop37
 90
       50
102
RTVSPost2010PropOp37
 70
     1
102
RTVSPost2010Prop38
140
0.0
102
RTVSPost2010PropOp38
 70
     1
102
RTVSPost2010Prop39
140
1.0
102
RTVSPost2010PropOp39
 70
     1
102
RTVSPost2010Prop40
 90
        0
102
RTVSPost2010PropOp40
 70
     1
102
RTVSPost2010Prop41ColorIndex
 90
       18
102
RTVSPost2010Prop41ColorRGB
 90
        0
102
RTVSPost2010PropOp41
 70
     1
102
RTVSPost2010Prop42
 90
       50
102
RTVSPost2010PropOp42
 70
     1
102
RTVSPost2010Prop43
 90
        3
102
RTVSPost2010PropOp43
 70
     1
102
RTVSPost2010Prop44ColorIndex
 90
        5
102
RTVSPost2010Prop44ColorRGB
 90
      255
102
RTVSPost2010PropOp44
 70
     1
102
RTVSPost2010Prop45
280
     0
102
RTVSPost2010PropOp45
 70
     1
102
RTVSPost2010Prop46
 90
       50
102
RTVSPost2010PropOp46
 70
     1
102
RTVSPost2010Prop47
 90
       50
102
RTVSPost2010PropOp47
 70
     1
102
RTVSPost2010Prop48
 90
       50
102
RTVSPost2010PropOp48
 70
     1
102
RTVSPost2010Prop49
280
     0
102
RTVSPost2010PropOp49
 70
     1
102
RTVSPost2010Prop50
 90
       50
102
RTVSPost2010PropOp50
 70
     1
102
RTVSPost2010Prop51ColorIndex
 90
      256
102
RTVSPost2010Prop51ColorRGB
 90
-16777216
102
RTVSPost2010PropOp51
 70
     0
102
RTVSPost2010Prop52
140
1.0
102
RTVSPost2010PropOp52
 70
     0
102
RTVSPost2010Prop53
 90
        2
102
RTVSPost2010PropOp53
 70
     1
102
RTVSPost2010Prop54
  1
strokes_ogs.tif
102
RTVSPost2010PropOp54
 70
     1
102
RTVSPost2010Prop55
280
     0
102
RTVSPost2010PropOp55
 70
     1
102
RTVSPost2010Prop56
140
1.0
102
RTVSPost2010PropOp56
 70
     1
102
RTVSPost2010Prop57
140
1.0
102
RTVSPost2010PropOp57
 70
     1
  0
XRECORD
  5
96F
102
{ACAD_REACTORS
330
96E
102
}
330
96E
100
AcDbXrecord
280
     1
102
RTVSPost2010Prop28
280
     0
102
RTVSPost2010PropOp28
 70
     1
102
RTVSPost2010Prop29
280
     1
102
RTVSPost2010PropOp29
 70
     1
102
RTVSPost2010Prop30
280
     1
102
RTVSPost2010PropOp30
 70
     1
102
RTVSPost2010Prop31
280
     0
102
RTVSPost2010PropOp31
 70
     1
102
RTVSPost2010Prop32
280
     0
102
RTVSPost2010PropOp32
 70
     1
102
RTVSPost2010Prop33
280
     0
102
RTVSPost2010PropOp33
 70
     1
102
RTVSPost2010Prop34
280
     0
102
RTVSPost2010PropOp34
 70
     1
102
RTVSPost2010Prop35
280
     0
102
RTVSPost2010PropOp35
 70
     1
102
RTVSPost2010Prop36
280
     0
102
RTVSPost2010PropOp36
 70
     1
102
RTVSPost2010Prop37
 90
       50
102
RTVSPost2010PropOp37
 70
     1
102
RTVSPost2010Prop38
140
0.0
102
RTVSPost2010PropOp38
 70
     1
102
RTVSPost2010Prop39
140
1.0
102
RTVSPost2010PropOp39
 70
     1
102
RTVSPost2010Prop40
 90
        0
102
RTVSPost2010PropOp40
 70
     1
102
RTVSPost2010Prop41ColorIndex
 90
       18
102
RTVSPost2010Prop41ColorRGB
 90
        0
102
RTVSPost2010PropOp41
 70
     1
102
RTVSPost2010Prop42
 90
       50
102
RTVSPost2010PropOp42
 70
     1
102
RTVSPost2010Prop43
 90
        3
102
RTVSPost2010PropOp43
 70
     1
102
RTVSPost2010Prop44ColorIndex
 90
        5
102
RTVSPost2010Prop44ColorRGB
 90
      255
102
RTVSPost2010PropOp44
 70
     1
102
RTVSPost2010Prop45
280
     0
102
RTVSPost2010PropOp45
 70
     1
102
RTVSPost2010Prop46
 90
       50
102
RTVSPost2010PropOp46
 70
     1
102
RTVSPost2010Prop47
 90
       50
102
RTVSPost2010PropOp47
 70
     1
102
RTVSPost2010Prop48
 90
       50
102
RTVSPost2010PropOp48
 70
     1
102
RTVSPost2010Prop49
280
     0
102
RTVSPost2010PropOp49
 70
     1
102
RTVSPost2010Prop50
 90
       50
102
RTVSPost2010PropOp50
 70
     1
102
RTVSPost2010Prop51ColorIndex
 90
      256
102
RTVSPost2010Prop51ColorRGB
 90
-16777216
102
RTVSPost2010PropOp51
 70
     0
102
RTVSPost2010Prop52
140
1.0
102
RTVSPost2010PropOp52
 70
     0
102
RTVSPost2010Prop53
 90
        2
102
RTVSPost2010PropOp53
 70
     1
102
RTVSPost2010Prop54
  1
strokes_ogs.tif
102
RTVSPost2010PropOp54
 70
     1
102
RTVSPost2010Prop55
280
     0
102
RTVSPost2010PropOp55
 70
     1
102
RTVSPost2010Prop56
140
1.0
102
RTVSPost2010PropOp56
 70
     1
102
RTVSPost2010Prop57
140
1.0
102
RTVSPost2010PropOp57
 70
     1
  0
ENDSEC
  0
EOF
